Song name
# A B C D E F G H I J K L M N O P Q R S T U V W X Y Z

The Republic Tigers - Buildings And Mountains tab

MAKE SURE when you're playing this, you ONLY play strings A, D, and G throughout the whole song. 
If you have anything to change, leave a comment or message me. Hope you like it!




e]-----------------------|
B]-----------------------|
G]--4----7----6--9--7----|
D]--4----7----6--9--7----|
A]--2----5----4--7--5----|
E]-----------------------| x2



e]----------|
B]----------|
G]--4----9--|
D]--4----9--|
A]--2----7--|
E]----------| x4



e]--------------|
B]--------------|
G]--6--4--4--2--|
D]--6--4--4--2--|
A]--4--2--2--0--|
E]--------------| x3
We've been waiting all our lives
For things we've always had
But have no eyes to see.
Something new is going to happen,
The most natural thing
But nothing we'd expect.



e]-----------------------|
B]-----------------------|
G]--4----7----6--9--7----|
D]--4----7----6--9--7----|
A]--2----5----4--7--5----|
E]-----------------------|
All these buildings and mountains,
Slowly they'll arise
Before our eyes.



e]----------|
B]----------|
G]--4----9--|
D]--4----9--|
A]--2----7--|
E]----------| x2



e]--------------|
B]--------------|
G]--6--4--4--2--|
D]--6--4--4--2--|
A]--4--2--2--0--|
E]--------------| x3
How do cities understand?
We drink the wine and wonder, why we're really here.
What's the point of even asking?
We take the good and bad
And make the best of it.



e]-----------------------|
B]-----------------------|
G]--4----7----6--9--7----|
D]--4----7----6--9--7----|
A]--2----5----4--7--5----|
E]-----------------------|  x2
All these buildings and mountains,
Slowly they'll arise
Before our eyes.  x2



e]----------------------|
B]----------------------|
G]--6----4----2----4----|
D]--6----4----2----4----|
A]--4----2----0----2----|
E]----------------------|  x2
Have you watched the cities move?
Does nature fall before
This age of industry?
For today I'll let it go
You've been good to me,
Have I been good to you?



e]-----------------------|
B]-----------------------|
G]--4----7----6--9--7----|
D]--4----7----6--9--7----|
A]--2----5----4--7--5----|
E]-----------------------|  x2
All these buildings and mountains,
Slowly they'll arise
Before our eyes.  x2



e]----------|
B]----------|
G]--4----9--|
D]--4----9--|
A]--2----7--|
E]----------| x2





Tap to rate this tab
 
# A B C D E F G H I J K L M N O P Q R S T U V W X Y Z