Song name
# A B C D E F G H I J K L M N O P Q R S T U V W X Y Z

The Rescues - My Heart With You tab

This is just the chorus and it's easy fingerstyle

You'll be playing the chord and then the melody with picking.

  C.         E                       Am.                   F

--0----------0-----------------------0---------------------1------|
--1----------0-----------------------1---------------------1------|
--0----------1-----------------------2---------------------2------|
--2----------2-----------------------2-------5---2---------3------|
--3----------2-----2-----0-----2-----0---------------3-----0------|
--0----------0-----------------------0---------------------0------|
 My          Love               the  rea-  son   I  sur- vive


  C.                      G.            Am.      F

--0-----------------------3--------------0-------1-|
--1-----------------------0--------------1-------1-|
--0-----------------------0--------------2-------2-|
--2--------------0---2----0--------------2-------3-|
--3------3----------------2--2p3---------0-------0-|
--0-----------------------3--------------0-------0-|
Trust   we'll    be to- ge- ther       soon


  C.         E                      Am.                    F

--0----------0-----------------------0---------------------1---|
--1----------0-----------------------1---------------------1---|
--0----------1-----------------------2-----4---2-----------2---|
--2----------2-----------------------2--------------2------3---|
--3----------2-----2-----0-----------0---------------------0---|
--0----------0-----------------------0---------------------0---|
Should      our                      fi-   re  turn to    dark


 Am.             Fm              C

--0--------------1---------------0--------------------------------|
--1--------------1---------------1--------------------------------|
--2--------2-----1---------------0--------------------------------|
--2---2----------3----------3----2------2--2--2--2--3-------------|
--0--------------3------3--------3------------------------3--2----|
--0--------------1---------------0--------------------------------|
Take      my   heart       with you
Tap to rate this tab
# A B C D E F G H I J K L M N O P Q R S T U V W X Y Z