Song name
# A B C D E F G H I J K L M N O P Q R S T U V W X Y Z

The Residents - Moisture tab

The Residents/Moisture/The Commercial Album

This solo is soooooo much fun! It is EZ to play, but
keep alert. Also, the slides up are the most
important part in the solo. Don't forget it, cuz it
matches with the song's great sense of WHIMSY!

-8-8-8-8-6-8-6-8-8-8-8-6-8-6----------------------|
------------6-------------8-6-8-6-8s--------------|
----------------------------------------------3-5-|
-----------------------------------------1h2h3----|
------------------------------------1h2h3---------|
--------------------------------------------------|

--------------------8-8-6-8-------8-8-6-8-6---------|
---------------------------6-8-6-8-------8-6s-------|
-3-3-3-0--------------------------------------------|
--------3-5-5-5-5-5s--------------------------------|
----------------------------------------------1h2h3-|
----------------------------------------------------|

------------------------------|
-------------------6-4-4-4-4s-|
--------------3-5-5-----------|
-1h2h3-1-3-5-5----------------|
------------------------------|
------------------------------|

That's it. GO RESIDENTS!
Tap to rate this tab
 
# A B C D E F G H I J K L M N O P Q R S T U V W X Y Z