Song name
# A B C D E F G H I J K L M N O P Q R S T U V W X Y Z

The Restarts - Breaking My Balls tab

Breaking my balls - The restarts

Standard tuning (EADGBe)

Guitar one - Lead
Guitar two - Rhythem

Not 100% sure buts its pritty close.
Any questions just email me. (toz13@hotmail.com)

Intro - Guitar one (0:00 - 0:18)

                           x8
|----------5--------------||
|7-5-5-7-------7-5-5-7--7-||
|-------------------------||
|-------------------------||
|-------------------------||
|-------------------------||

Guitar two

|----------------------------------||
|----------------------------------||
|-------------9--------------------||
|-4-----6-----9x8--9----4-----2--3-||
|-4x16--6x16--7----9x8--4x12--2--3-||
|-2-----4----------7----2-----0--1-||

Verse one - Both Guitars (0:18 - 0:36)

|----------------------------------|
|----------------------------------|
|-------------9--------------------|
|-4-----6-----9x8--9----4-----2--3-|
|-4x16--6x16--7----9x8--4x12--2--3-|
|-2-----4----------7----2-----0--1-|
|
|----------------------------------||
|----------------------------------||
|-------------9--------------------||
|-4-----6-----9x8--9----4-----4--4-||
|-4x16--6x16--7----9x8--4x14--4--4-||
|-2-----4----------7----2-----2--2-||

Chorus - Both guitars (0:36 - 0:45)

|-----------------------------------------||
|-----------------------------------------||
|9------------------9---------------------||
|9x8--9----4-----2--9x8--9----11-----2--3-||
|7----9x8--4x15--2--7----9x8--11x12--2--3-||
|-----7----2-----0-------7----9------0--1-||


Intro
(0:45 - 1:04)

Verse
(1:04 - 1:22)

Chorus
(1:22 - 1:31)

Solo - Guitar one
(1:31 - 1:49)

|---------------------------------------------------------------------------|
|4----7-----7-----7-----7---6-----9------9------9------9--------------------|
|6b8----6b8---6b8---6b8-----8b10----8b10---8b10---8b10---8b10-10-10-10-10r8-|
|---------------------------------------------------------------------------|
|---------------------------------------------------------------------------|
|---------------------------------------------------------------------------|
|
|
|--------------------------------14---------9-------9-----------------------|
|---------7~---9-7--------------------12b14---12b14---12b14 14 14r12 12~----|
|4~---4-------------6v~------6/---------------------------------------------|
|---------------------------------------------------------------------------|
|---------------------------------------------------------------------------|
|---------------------------------------------------------------------------|
|
|                            x5
|---------------------------|--14~--17b18-14-17b18-14-17b18-14v~---14\-||
|14h17p16p14-14-14h17p16p14-|------------------------------------------||
|---------------------------|------------------------------------------||
|---------------------------|------------------------------------------||
|---------------------------|------------------------------------------||
|---------------------------|------------------------------------------||

Guitar two
Play the chorus once


Outro - Both Guitars (1:49 - end)

                    x3
|------------------|-----------------------|
|------------------|-----------------------|
|9-----------------|-9---------------------|
|9x8--9----4-----2-|-9x8--9----11-----2--3-|
|7----9x8--4x15--2-|-7----9x8--11x12--2--3-|
|-----7----2-----0-|------7----9------0--1-|

End on...

|-----||
|-----||
|-----||
|4~---||
|4~---||
|2~---||














Tap to rate this tab
# A B C D E F G H I J K L M N O P Q R S T U V W X Y Z