Song name
# A B C D E F G H I J K L M N O P Q R S T U V W X Y Z

The Revolts - Stop These Wars tab

Well i Just watched the video of the Movie when there playing this song and i
learned it.... not hard at all...Wassup Rockers great fucking Movie
OI from Cali...Escondido!!!
Punk will Not Die!!

Intro:
e---------------------------------------------|
B---------------------------------------------|
G---------------------------------------------|
D-5-5--4-4-------7-7--------------------------|
A-3-3--2-2--5-5--5-5--------------------------|
E-----------3-3-------------------------------|

Verse:
e----------------------------------------------|
B----------------------------------------------|
G----------------------------------------------|
D-5-------4---------------7--------------------|
A-3-(x4)--2-(x4)--5-------5-(x4)---------------|
E-----------------3-(x4)-----------------------|

Chorus:
e----------------------------------------------|
B----------------------------------------------|
G----------------------------------------------|
D--7-------9-------5---------------------------|
A--5-(x4)--7-(x4)--3-(x4)--5-------------------|
E--------------------------3-(x4)--------------|


Verse 2:
e----------------------------------------------|
B----------------------------------------------|
G----------------------------------------------|
D--5-------7-----------------------------------|
A--3-(x4)--5-(x4)--9-------7-------------------|
E------------------7-(x4)--5-(x4)--------------|

1 Strum:
e----------------------------------------------|
B----------------------------------------------|
G----------------------------------------------|
D---5---repeat 4-------------------------------|
A---3------------------------------------------|
E----------------------------------------------|


Order:
intro:  x3
Verse:  x5
Chorus: X4
Intro:  x3
Verse:  x5
Chorus: x4
1 Note: x4
Verse2: x4
Chorus: x6
Intro:  x1
Tap to rate this tab
 
# A B C D E F G H I J K L M N O P Q R S T U V W X Y Z