Song name
# A B C D E F G H I J K L M N O P Q R S T U V W X Y Z

The Rezillos - Somebodys Gonna Get Their Head Kicked In tab

Somebody's Gonna Get Their Head Kicked In by The Rezillos
from Jackass The Movie Soundtrack


e---------------------------------------|
B---------------------------------------|
G-0~------------------------------------|
D-5~-5-55-55-55-555/4--5-55-55-55-555/4-|
A-5~-5-55-55-55-555/4--5-55-55-55-555/4-|
E-3~-3-33-33-33-333/2--3-33-33-33-333/2-|

MAIN RIFF
e-------------------------|
B-------------------------|
G-------------------------| repeated lots 
D-5-55---3-4--5-55---3-4--|
A-5-55-0-3-4--5-55-0-3-4--|
E-3-33-0-1-2--3-33-0-1-2--|

e-------------------------------3-6bp3-33-6bp3-----------------------------|
B----------------------------------------------6p3-------------------------|
G-5b-5b-3-5b-5b--5-5p3---5p3-----------------------5br-3-5p3------3-5-5b-5b|
D----------------------5-----5-------------------------------5--5----------|
A--------------------------------------------------------------------------|
E--------------------------------------------------------------------------|

e-------|
B-------|
G-3-3~--|
D-------|
A-------|
E-------|

OUTRO
e----------|
B----------|
G----------| let last chord ring
D-5--5--5--|
A-5--5--5--|
E-3--3--3--|

Any corrections please comment
Thanks
Tap to rate this tab
 
# A B C D E F G H I J K L M N O P Q R S T U V W X Y Z