Song name
# A B C D E F G H I J K L M N O P Q R S T U V W X Y Z

The Richmond Sluts - Drive Me Wild tab

|--------------X-----X-----(X)---X---X---X---X-X-X-------------|
|--------------X-----X-----(X)---X---X---X---X-X-X-------------|
|--------------X-----X-----(X)---X---X---X---X-X-X-------------|
|--------------X-----X-----(X)---7---9---9---9-9-9-------------|
|--------------9-----9-----(9)---5---7---7---7-7-7-------------|
|--------------7-----7-----(7)---X---X---X---X-X-X-------------|
               



|--------------X--X-X-X-X-X-----X--X--X--X-X-X-----------------|
|--------------X--X-X-X-X-X-----X--X--X--X-X-x-----------------|
|--------------X--X-X-X-X-X-----X--X--X--X-X-X-----------------|
|--------------9--9-9-9-9-9-----X--X--X--X-X-X-----------------|
|--------------7--7-7-7-7-7-----5--7--9--9-9-9-----------------|
|--------------X--X-X-X-X-X-----3--5--7--7-7-7-----------------|
Tap to rate this tab
# A B C D E F G H I J K L M N O P Q R S T U V W X Y Z