Guitaretab - guitar tabs
Song name
# A B C D E F G H I J K L M N O P Q R S T U V W X Y Z

The Rifles - Robin Hood tab

VERSE:

One just one and then I'll go 
3------7------------12------8
3------7------------12------8
4------8------------12------9
5------9------------14------10
5------9------------14------10
3------7------------12------8

Though it's on the cards that an argument it's imminent I know 
3------------------------7---------12-------8
3------------------------7---------12-------8
4------------------------8---------12-------9
5------------------------9---------14-------10
5------------------------9---------14-------10
3------------------------7---------12-------8

But its not like I'll get carried home 
------3-----7---------12------8
------3-----7---------12------8
------4-----8---------12------9
------5-----9---------14------10
------5-----9---------14------10
------3-----7---------12------8

It's just that I believe that she don't think I think of her when I'm on my own so... 
----------3----------7-----------12------------8-------10
----------3----------7-----------12------------8-------10
----------4----------8-----------12------------9-------11
----------5----------9-----------14------------10------12
----------5----------9-----------14------------10------12
----------3----------7-----------12------------8-------10


CHORUS:

                        Don't think that I don't need              Our nights with the TV 
12-------------10----------------12------------------10----------------
12-------------10----------------12------------------10----------------
12-------------11----------------12------------------11----------------
14-------------12----------------14------------------12----------------
14-------------12----------------14------------------12----------------
12-------------10----------------12------------------10----------------

                 You're so dear to me but sometimes I like to lose control 
12-------------10----------8--------10-------3
12-------------10----------8--------10-------3
12-------------11----------9--------11-------4
14-------------12----------10-------12-------5
14-------------12----------10-------12-------5
12-------------10----------8--------10-------3


(And this pattern repeats through the next verse and chorus)

Just one more I promise then I'll go 
Now I don't want a scene and have you screaming down the phone 
You should know the only one I know 
That will make me laugh with little things they do is you and only you alone so 
[ Tab from: http://www.guitaretab.com/t/the-rifles/148649.html ]
Don't think that I might be 
Thinking that I might leave 
You're so dear to me but sometimes I like to lose control 

BREAK:
3-3------7-7-------12-12------8--7--5
3-3------7-7-------12-12------8--7--5
4-4------8-8-------12-12------9--8--6
5-5------9-9-------14-14------10-9--7
5-5------9-9-------14-14------10-9--7
3-3------7-7-------12-12------8--7--5

3-3------7-7-------12-12------8--7--5--10
3-3------7-7-------12-12------8--7--5--10
4-4------8-8-------12-12------9--8--6--11
5-5------9-9-------14-14------10-9--7--12
5-5------9-9-------14-14------10-9--7--12
3-3------7-7-------12-12------8--7--5--10

       Maybe Saturday we'll go out and do something you like 
12------10---------8--------7------5---3--12
12------10---------8--------7------5---3--12
12------11---------9--------8------6---4--12
14------12---------10-------9------7---5--14
14------12---------10-------9------7---5--14
12------10---------8--------7------5---3--12

Til that day arrives you should know you're mine 
--14-------8---10--------------------
--14-------8---10--------------------
--15-------9---11--------------------
--16-------10--12--------------------
--16-------10--12--------------------
--14-------8---10--------------------


CHORUS:

                        Don't think that I don't need              Our nights with the TV 
12-------------10----------------12------------------10----------------
12-------------10----------------12------------------10----------------
12-------------11----------------12------------------11----------------
14-------------12----------------14------------------12----------------
14-------------12----------------14------------------12----------------
12-------------10----------------12------------------10----------------

                 You're so dear to me but sometimes I like to lose control        One thing I...
12-------------10----------8--------10-------3------7------12----8
12-------------10----------8--------10-------3------7------12----8
12-------------11----------9--------11-------4------8------12----9
14-------------12----------10-------12-------5------9------14----10
14-------------12----------10-------12-------5------9------14----10
12-------------10----------8--------10-------3------7------12----8


...know,                                  when I go my heart stays at home
--3------7------12----8---10--------------3
--3------7------12----8---10--------------3
--4------8------12----9---11--------------4
--5------9------14----10--12--------------5
--5------9------14----10--12--------------5
--3------7------12----8---10--------------3


Hope you like it!
Related for Robin Hood tab
Advertisement will be closed in 10 seconds