Song name
# A B C D E F G H I J K L M N O P Q R S T U V W X Y Z

The Rifles - Sometimes tab

e|-10-10-9-9-------10-10-9-9-------10-10-9-9-------------9-9-------------9-9|
b|-----------12-12-----------12-12-----------10-10-12-12-----10-10-12-12----|
g|--------------------------------------------------------------------------|
d|--------------------------------------------------------------------------|
a|--------------------------------------------------------------------------|
e|--------------------------------------------------------------------------|

e|-------------10-10-9-9-------10-10-9-9-------9-9-12-12-------------9-9----|
b|-10-10-12-12-----------12-12-----------12-12-----------10-10-12-12-----10-|
g|--------------------------------------------------------------------------|
d|--------------------------------------------------------------------------|
a|--------------------------------------------------------------------------|
e|--------------------------------------------------------------------------|

e|----------9-9-------------------------------------------------------------|
b|-10-12-12------10-10-12-12------------------------------------------------|
g|--------------------------------------------------------------------------|
d|--------------------------------------------------------------------------|
a|--------------------------------------------------------------------------|
e|--------------------------------------------------------------------------|

Great song, great album, could do with someone figuring out the chords
Tap to rate this tab
# A B C D E F G H I J K L M N O P Q R S T U V W X Y Z