Guitaretab - guitar tabs
Song name
# A B C D E F G H I J K L M N O P Q R S T U V W X Y Z

The Rifles - Science Is Violence tab

Guitar: Lucas Crowther
Album: Great Escape

Intro:

e---------------------------------------------------------------|           
B---------------------------------------------------------------|           
G-----13--8--13--8--13--8--13----16--13-16-18-16--15--16-15-|    2x      
D------x--x---x--x---x-x---x-----x---x---x---x---x---x---x---x-|           
A-----11--6--11--6--11--6--11----14--11-14-16-14-13-14-13-|           
E---------------------------------------------------------------|           

e---------------------|           
B---------------------|           
G---13~---------------|      
D----x~-----x--4-h-6--|           
A---11~-----x--4-h-6--|           
E-----------x--2-h-4--|           

First Verse:

"The days of old..."          
                      
e----------------------------------------------------------------|              
B----------------------------------------------------------------|             
G----------------------------------------------------------------|
D--6-6-x-x-x-x--6-6-x-x-x-x-6-6-x-x-x-x-6-6-6-6--9-9-x-x-x-x--| 
A--6-6-x-x-x-x-6-6-x-x-x-x-6-6-x-x-x-x-6-6-6-6--9-9-x-x-x-x--|
E--4-4-x-x-x-x--4-4-x-x-x-x--4-4-x-x-x-x--4-4-4-4---7-7-x-x-x-x--|


e-------------------------------------|
B-------------------------------------|
G-------------------------------------|	4x
D--9-9-x-x-x-x--9-9-x-x-x-x-9-9-x-8--|
A--9-9-x-x-x-x--9-9-x-x-x-x-9-9-x-8--|
E--7-7-x-x-x-x--7-7-x-x-x-x-7-7-x-6--|


Chorus:
"They're not ever gonna listen...
Lead Guitar

e-------------------------------------------------------------------------|
B--5-----5-----5-----5-----9-----9-----12-------12-------5-----5-----5----|
G----6-----6-----6-----6-----9-----9------13-------13------6-----6-----6--|      
D------6-----6-----6-----6-----9-----9-------13-------13-----6-----6-----6|
A-------------------------------------------------------------------------|
E-------------------------------------------------------------------------|

e---------------------------------------------|
B---5-----9-----9------11-11-11-11-11-11-11---|
G-----6-----9-----9----11-11-11-11-11-11-11---|      
D-------6-----9-----9--11-11-11-11-11-11-11---|
A---------------------------------------------|
E---------------------------------------------|


Rhythm Guitar

e-------------------------|
B-------------------------|
G--6----9-----6----9-11--|
D-6----9-6-6----9-11--|
A--4----7-6-4----7---9--|
E----------4--------------|

[ Tab from: http://www.guitaretab.com/t/the-rifles/188697.html ]
2nd Verse:
"The water hermit 'lone at night and everlasting trial..
e-----------------------------------------------|
B-----------------------------------------------|
G-----------16--13-16-18-16--15--16-15--13--|
D--6--6------x---x---x---x---x---x---x---x---x--|
A--6--6-----14--11-14-16-14-13-14-13--11--|
E--4--4-----------------------------------------|

e----------------------------------------------------------------|              
B----------------------------------------------------------------|             
G----------------------------------------------------------------|
D--6-6-x-x-x-x--6-6-x-x-x-x-6-6-x-x-x-x-6-6-6-6--9-9-x-x-x-x--| 
A--6-6-x-x-x-x-6-6-x-x-x-x-6-6-x-x-x-x-6-6-6-6--9-9-x-x-x-x--|
E--4-4-x-x-x-x--4-4-x-x-x-x--4-4-x-x-x-x--4-4-4-4---7-7-x-x-x-x--|


e-------------------------------------|
B-------------------------------------|
G-------------------------------------|	3x
D--9-9-x-x-x-x--9-9-x-x-x-x-9-9-x-8--|
A--9-9-x-x-x-x--9-9-x-x-x-x-9-9-x-8--|
E--7-7-x-x-x-x--7-7-x-x-x-x-7-7-x-6--|


Chorus



After the 2nd Chorus

e------------------------------------|
B------------------------------------|
G------------------------------------|      
D--6-6-6-66-6-8-9-9-9-9-13-13-13-13-|
A--6-6-6-66-6-8-9-9-9-9-13-13-13-13-|
E--4-4-4-4-4-4-6-7-7-7-7-11-11-11-11-|

e--------------------------------------------------------------------|           
B--------------------------------------------------------------------|           
G-----13--8--13--8--13--8--13----16--13-16-18-16--15--16-15-13~-|     
D------x--x---x--x---x-x---x-----x---x---x---x---x---x---x---x---x~-|        
A-----11--6--11--6--11--6--11----14--11-14-16-14-13-14-13-11~-|         
E--------------------------------------------------------------------| 

e-----------------------------------------|
B-----------------------------------------|
G-6~--9~--------6~--9~------------------|
D-6~--9~-6~---6~--9~-44-4-4-4-4-4----|
A-4~--7~-6~---4~--7~--4-4-4-4-4-4-4----|
E----------4~------------2-2-2-2-2-2-2----|

e---------------------------------------------------------------|           
B---------------------------------------------------------------|           
G-----13--8--13--8--13--8--13----16--13-16-18-16--15--16-15-|    2x      
D------x--x---x--x---x-x---x-----x---x---x---x---x---x---x---x-|           
A-----11--6--11--6--11--6--11----14--11-14-16-14-13-14-13-|           
E---------------------------------------------------------------| 

e--------|           
B--------|           
G---13~--|      
D----x~--| 
A---11~--| 
E--------| 
          

e----------------------------------------|
B----------------------------------------|
G----------------------------------------|      
D--6-6-6-66-6-8-9-9-9-9-13-13-13-13--6~--|
A--6-6-6-66-6-8-9-9-9-9-13-13-13-13--6~--|
E--4-4-4-4-4-4-6-7-7-7-7-11-11-11-11--4~--|


 

         
Please rate the tab!
Zach182



Related for Science Is Violence tab