Song name
# A B C D E F G H I J K L M N O P Q R S T U V W X Y Z

The Rifles - Romeo And Julie tab

This is just a few bits that sound good if you get someone else to play the chords that 
tabbed: http://www.ultimate-guitar.com/tabs/t/the_rifles/romeo_and_julie_crd.htm

Its rough, just picked it up by ear but it sounds decent and just listen to the song and 
be able to get the rest of it from this.

Song: Romeo and Julie
Artist: The Rifles
Album: The Great Escape
Tabbed by: Sean Donnelly

INTRO:

        A          E        D      E       A
e|-----------|----12-12-12-10-----12-12-12-9-------|
B|-----------|-------------------------------------|
G|---9/14----|-------------------------------------|
D|-----------|-------------------------------------|
A|-----------|-------------------------------------|
E|-----------|-------------------------------------| x4/8

Here you can play the 2nd bit 8 times before the words come in, but i prefer to do it 4 
then switch to the other little bit below (listen for it).


     A      E      D     A
e|---9---10-9---10-9---------------|
B|----10-----10-----10----9-10-----|
G|--------------------9-11---------|
D|---------------------------------|
A|---------------------------------|
E|---------------------------------| x2


Then if you wanna play along with the verse/chorus chords you can play the same chords 
a different place with a choppy strumming style

A E D E repeatedly

A: 12.14.14.14.12.12
E: 799977
D: 577755


SOLO:

e|--12-10-9-----12-10-9-------12-10-9---10-9-12-------|
B|----------10----------10------------10-------10-----|
G|----------------------------------------------------|
D|----------------------------------------------------|
A|----------------------------------------------------|
E|----------------------------------------------------| x2


e|--12-10-9-10-9-10-9-------12-10-9-10-9-10-9-/12-----|
B|-------------------10-------------------------------|
G|----------------------------------------------------|
D|----------------------------------------------------|
A|----------------------------------------------------|
E|----------------------------------------------------|


e|--12-10-9-10-9-10-9-------12-10-9-10-9-10-9-10-10v--|
B|-------------------10-------------------------------|
G|----------------------------------------------------|
D|----------------------------------------------------|
A|----------------------------------------------------|
E|----------------------------------------------------|

Just mess around with them bits, sounds good to me.
Tap to rate this tab
# A B C D E F G H I J K L M N O P Q R S T U V W X Y Z