Song name
# A B C D E F G H I J K L M N O P Q R S T U V W X Y Z

The Rifles - Winter Calls tab

this is my first tab hope u like it
Artist: The rifles
Album: The great Escape
Tabbed by: smiffy SG

e-----------------------------------------------------------------------------|
a-----------------------------------------------------------------------------|
d-----------------------------------------------------------------------------|
g----10-10-10-12---12-10------12-------12--10------12------------10-12-----12-|
b----------------10------11-10---11-10--------11-10---11-10-13-10-----11-10---|
e-----------------------------------------------------------------------------|

e----------------------------------|
a----------------------------------|
d----------------------------------|
g-10-12------10-12------12-10-12---|
b-------10---------11-10--------10-|
Tap to rate this tab
# A B C D E F G H I J K L M N O P Q R S T U V W X Y Z