Song name
# A B C D E F G H I J K L M N O P Q R S T U V W X Y Z

The Rifles - You Win Some tab

---------------------------------------------------------------------------
                             YOU WIN SOME - The Rifles
---------------------------------------------------------------------------
Tabbed by: cfc94

Tuning: Standard tuning, no capo

Great song from their upcoming album None The Wiser, listen to the song for help on timings


   F     C     G         F     C     G         F     C     G
e|-1-----0----------------1-----0----------------1-----0------------------|
B|---1-----1---3--------3---1-----1---3--------3---1-----1---3--------3---|
G|-----2-----0---4-----4------2-----0---4-----4------2-----0---4-----4----|
D|-----------------5--5-------------------5--5-------------------5--5-----|
A|------------------------------------------------------------------------|
E|------------------------------------------------------------------------|
  Intro

   F     C     G         C                           
e|-1-----0----------------------------------------------------------------|
B|---1-----1---3--------3----1-----1-----1-----1-----1-----1-----1-----1--|
G|-----2-----0---4-----4----0-0---0-0---0-0---0-0---0-0---0-0---0-0---0-0-|
D|-----------------5--5---------------------------------------------------|
A|------------------------3-----3-----3-----3-----3-----3-----3-----3-----|
E|------------------------------------------------------------------------|
  Intro                                                       You canít...

   F     C     G         F     C     G         F     C     G
e|-1-----0----------------1-----0----------------1-----0------------------|
B|---1-----1---3--------3---1-----1---3--------3---1-----1---3--------3---|
G|-----2-----0---4-----4------2-----0---4-----4------2-----0---4-----4----|
D|-----------------5--5-------------------5--5-------------------5--5-----|
A|------------------------------------------------------------------------|
E|------------------------------------------------------------------------|
                it will...               by the...             time has...

   F     C     G         F     C     G         F     C     G
e|-1-----0----------------1-----0----------------1-----0------------------|
B|---1-----1---3--------3---1-----1---3--------3---1-----1---3--------3---|
G|-----2-----0---4-----4------2-----0---4-----4------2-----0---4-----4----|
D|-----------------5--5-------------------5--5-------------------5--5-----|
A|------------------------------------------------------------------------|
E|------------------------------------------------------------------------|
                 but you...          you couldnít...        and everything


   F     C     G         F     C     G         F C     
e|-1-----0----------------1-----0-----------------------------------------|
B|---1-----1---3--------3---1-----1---3--------3----1-----1-----1-----1---|
G|-----2-----0---4-----4------2-----0---4-----4----0-0---0-0---0-0---0-0--|
D|-----------------5--5-------------------5--5----------------------------|
A|-----------------------------------------------3-----3-----3-----3------|
E|------------------------------------------------------------------------|
  ...              it only...                 And yesterday is over and it  


   G                       C                       G
e|------------------------------------------------------------------------|
B|----0-----0-----0-----0-----1-----1-----1-----1-----0-----0-----0-----0-|
G|---0-0---0-0---0-0---0-0---0-0---0-0---0-0---0-0---0-0---0-0---0-0---0-0|
D|------------------------------------------------------------------------|
A|-2-----2-----2-----2-----3-----3-----3-----3-----2-----2-----2-----2----|
E|------------------------------------------------------------------------|
  wonít be back again, but thereís beauty in tomorrow if it means that I...

   C
e|-------------------------------------------------|
B|----1-----1-----1-----1-----1-----1-----1-----1--|
G|---0-0---0-0---0-0---0-0---0-0---0-0---0-0---0-0-|
D|-------------------------------------------------|
A|-3-----3-----3-----3-----3-----3-----3-----3-----|
E|-------------------------------------------------|
                                         and the...

   F     C     G          F     C     G          F     C     G
e|-1-----0----------------1-----0----------------1-----0------------------|
B|---1-----1---3--------3---1-----1---3--------3---1-----1---3--------3---|
G|-----2-----0---4-----4------2-----0---4-----4------2-----0---4-----4----|
D|-----------------5--5-------------------5--5-------------------5--5-----|
A|------------------------------------------------------------------------|
E|------------------------------------------------------------------------|
                  it may...              we can...             and learn...


   F     C     G          F     C     G          F     C     G
e|-1-----0----------------1-----0----------------1-----0------------------|
B|---1-----1---3--------3---1-----1---3--------3---1-----1---3--------3---|
G|-----2-----0---4-----4------2-----0---4-----4------2-----0---4-----4----|
D|-----------------5--5-------------------5--5-------------------5--5-----|
A|------------------------------------------------------------------------|
E|------------------------------------------------------------------------|
                  but you...           only give...             so open...



   F     C     G         F     C     G         F C     
e|-1-----0----------------1-----0-----------------------------------------|
B|---1-----1---3--------3---1-----1---3--------3----1-----1-----1-----1---|
G|-----2-----0---4-----4------2-----0---4-----4----0-0---0-0---0-0---0-0--|
D|-----------------5--5-------------------5--5----------------------------|
A|-----------------------------------------------3-----3-----3-----3------|
E|------------------------------------------------------------------------|
                  and let...      and youíll... but yesterday is over and it 

    G                       C                       G
e|------------------------------------------------------------------------|
B|----0-----0-----0-----0-----1-----1-----1-----1-----0-----0-----0-----0-|
G|---0-0---0-0---0-0---0-0---0-0---0-0---0-0---0-0---0-0---0-0---0-0---0-0|
D|------------------------------------------------------------------------|
A|-2-----2-----2-----2-----3-----3-----3-----3-----2-----2-----2-----2----|
E|------------------------------------------------------------------------|
wonít be back again, but thereís beauty in tomorrow if it means that I...


C                       G                       C
e|------------------------------------------------------------------------|
B|----1-----1-----1-----1-----0-----0-----0-----0-----1-----1-----1-----1-|
G|---0-0---0-0---0-0---0-0---0-0---0-0---0-0---0-0---0-0---0-0---0-0---0-0|
D|------------------------------------------------------------------------|
A|-3-----3-----3-----3-----2-----2-----2-----2-----3-----3-----3-----3----|
E|------------------------------------------------------------------------|
  And there is no greater substitute...


   G                       F                       
e|-------------------------1-----0----------------------------------------|
B|----0-----0-----0-----0----1-----1---3--------3-------------------------|
G|---0-0---0-0---0-0---0-0-----2-----0---4-----4--------------------------|
D|-----------------------------------------5--5---------------------------|
A|-2-----2-----2-----2----------------------------------------------------|
E|------------------------------------------------------------------------|
  only how...


   F     C     G          F     C     G          F     C     G
e|-1-----0----------------1-----0----------------1-----0------------------|
B|---1-----1---3--------3---1-----1---3--------3---1-----1---3--------3---|
G|-----2-----0---4-----4------2-----0---4-----4------2-----0---4-----4----|
D|-----------------5--5-------------------5--5-------------------5--5-----|
A|------------------------------------------------------------------------|
E|------------------------------------------------------------------------|


   F     C     G          F     C     G          F     C     G
e|-1-----0----------------1-----0----------------1-----0------------------|
B|---1-----1---3--------3---1-----1---3--------3---1-----1---3--------3---|
G|-----2-----0---4-----4------2-----0---4-----4------2-----0---4-----4----|
D|-----------------5--5-------------------5--5-------------------5--5-----|
A|------------------------------------------------------------------------|
E|------------------------------------------------------------------------|
  

   F     C     G          F     C     G          F     C     G
e|-1-----0----------------1-----0----------------1-----0------------------|
B|---1-----1---3--------3---1-----1---3--------3---1-----1---3--------3---|
G|-----2-----0---4-----4------2-----0---4-----4------2-----0---4-----4----|
D|-----------------5--5-------------------5--5-------------------5--5-----|
A|------------------------------------------------------------------------|
E|------------------------------------------------------------------------|


   C    
e|------------------------------------------------------------------------|
B|---1-----1-----1-----1-----1-----1-----1-----1--------------------------|
G|-----0-----0-----0-----0-----0-----0-----0-----0------------------------|
D|------------------------------------------------------------------------|
A|-3-----3-----3-----3-----3-----3-----3-----3------3---------------------|
E|------------------------------------------------------------------------|


************************************

| /   slide up
| \   slide down
| h   hammer-on
| p   pull-off
| ~   vibrato
| +   harmonic
| x   Mute note
| b   Bend
| pb  Pre-bend
| br  Bend release
| pbr Pre-bend release
| brb Bend release bend

************************************
Tap to rate this tab
# A B C D E F G H I J K L M N O P Q R S T U V W X Y Z