Song name
# A B C D E F G H I J K L M N O P Q R S T U V W X Y Z

The Rifles - Local Boy tab

-------------------------------------------------------------------------------
			     SONG NAME - Band Name
-------------------------------------------------------------------------------
Tabbed by: alex
Email: alex.rau@gmx.de

Tuning:E

Intro
Guitar 1:
Main Riff
e|9-9-9-9-9-9-9-9-10--9---7---9---2-2-2-2-2-2-2-2-5---5---7---7--------------|
B|10101010101010109---9---9---9---3-3-3-3-3-3-3-3-3---3---3---3--------------|
G|9-9-9-9-9-9-9-9-9-9-9---9---9---4-4-4-4-4-4-4-4-4---4---4---4--------------|
D|---------------------------------------------------------------------------|
A|---------------------------------------------------------------------------|
E|---------------------------------------------------------------------------|
Guitar 2:
Chords
e|5-5-5-5-5-5-5-5-0-0-0-0-0-0-0-0-2-2-2-2-2-2-2-2-2-2-2-2-2-2-2-2------------|
B|5-5-5-5-5-5-5-5-0-0-0-0-0-0-0-0-3-3-3-3-3-3-3-3-3-3-3-3-3-3-3-3------------|
G|6-6-6-6-6-6-6-6-1-1-1-1-1-1-1-1-4-4-4-4-4-4-4-4-4-4-4-4-4-4-4-4------------|
D|7-7-7-7-7-7-7-7-2-2-2-2-2-2-2-2-4-4-4-4-4-4-4-4-4-4-4-4-4-4-4-4------------|
A|7-7-7-7-7-7-7-7-2-2-2-2-2-2-2-2-2-2-2-2-2-2-2-2-2-2-2-2-2-2-2-2------------|
E|5-5-5-5-5-5-5-5-0-0-0-0-0-0-0-0-x-x-x-x-x-x-x-x-x-x-x-x-x-x-x-x------------|
  A               E               Bm

Verse:
First only Guitar 2:
Chords
e|5-5-5-5-5-5-5-5-0-0-0-0-0-0-0-0-2-2-2-2-2-2-2-2-2-2-2-2-2-2-2-2------------|
B|5-5-5-5-5-5-5-5-0-0-0-0-0-0-0-0-3-3-3-3-3-3-3-3-3-3-3-3-3-3-3-3------------|
G|6-6-6-6-6-6-6-6-1-1-1-1-1-1-1-1-4-4-4-4-4-4-4-4-4-4-4-4-4-4-4-4------------|
D|7-7-7-7-7-7-7-7-2-2-2-2-2-2-2-2-4-4-4-4-4-4-4-4-4-4-4-4-4-4-4-4------------|
A|7-7-7-7-7-7-7-7-2-2-2-2-2-2-2-2-2-2-2-2-2-2-2-2-2-2-2-2-2-2-2-2------------|
E|5-5-5-5-5-5-5-5-0-0-0-0-0-0-0-0-x-x-x-x-x-x-x-x-x-x-x-x-x-x-x-x------------|
  A               E               Bm
Then in the second part Guitar 1 joins with the same chords

Pre-Chorus
Guitar 2: F#m (2 2 2 5 5 2) E (0 2 2 1 0 0) Bm (x 2 4 4 3 2)
Guitar 1:
e|9-9-9-9-9-9-9-9-9-9-9-9-9-9-9-9-9-9-9-9-9-9-9-9-9-9-9-9-9-9-9-9------------|
B|1010101010101010101010101010101010101010101010101010101010101010-----------|
G|---------------------------------------------------------------------------|
D|---------------------------------------------------------------------------|
A|---------------------------------------------------------------------------|
E|---------------------------------------------------------------------------|

e|9-9-9-9-9-9-9-9-12121212121212127-7-7-7-7-7-7-7-7-7-7-7-7-7-7-7-7----------|
B|101010101010101012121212121212127-7-7-7-7-7-7-7-7-7-7-7-7-7-7-7-7----------|
G|---------------------------------------------------------------------------|
D|---------------------------------------------------------------------------|
A|---------------------------------------------------------------------------|
E|---------------------------------------------------------------------------|
Verse
Guitar 1: usual chords
Guitar 2:
e|9-9-9-9-9-9-9-9-7-7-7-7-7-7-7-7-2-2-2-2-2-2-2-2-2-2-2-2-2-2-2-2------------|
B|10101010101010109-9-9-9-9-9-9-9-3-3-3-3-3-3-3-3-3-3-3-3-3-3-3-3------------|
G|9-9-9-9-9-9-9-9-9-9-9-9-9-9-9-9-4-4-4-4-4-4-4-4-4-4-4-4-4-4-4-4------------|
D|---------------------------------------------------------------------------|
A|---------------------------------------------------------------------------|
E|---------------------------------------------------------------------------|
Pre-Chorus: same as first
Chorus
Guitar 2: usual Chords
Guitar 1: 
Main Riff:
e|9-9-9-9-9-9-9-9-10--9---7---9---2-2-2-2-2-2-2-2-5---5---7---7--------------|
B|10101010101010109---9---9---9---3-3-3-3-3-3-3-3-3---3---3---3--------------|
G|9-9-9-9-9-9-9-9-9-9-9---9---9---4-4-4-4-4-4-4-4-4---4---4---4--------------|
D|---------------------------------------------------------------------------|
A|---------------------------------------------------------------------------|
E|---------------------------------------------------------------------------|

Bridge:
Guitar 2: usual Chords
Guitar 1:
e|5-55-55-4-----------------------x2-----------------------------------------|
B|----------5-3-33-33323/5---------------------------------------------------|
G|---------------------------------------------------------------------------|
D|---------------------------------------------------------------------------|
A|---------------------------------------------------------------------------|
E|---------------------------------------------------------------------------|

Both: F#m (2 2 2 5 5 2) E (0 2 2 1 0 0) Bm (x 2 4 4 3 2) x2
Then Guitar 2 keeps playing these chords and guitar 1 plays pre-chorus riff:
e|9-9-9-9-9-9-9-9-9-9-9-9-9-9-9-9-9-9-9-9-9-9-9-9-9-9-9-9-9-9-9-9------------|
B|1010101010101010101010101010101010101010101010101010101010101010-----------|
G|---------------------------------------------------------------------------|
D|---------------------------------------------------------------------------|
A|---------------------------------------------------------------------------|
E|---------------------------------------------------------------------------|

e|9-9-9-9-9-9-9-9-9-9-9-9-9-9-9-9-9-121217171717171717171717171717-----------|
B|1010101010101010101010101010101010121217171717171717171717171717-----------|
G|---------------------------------------------------------------------------|
D|---------------------------------------------------------------------------|
A|---------------------------------------------------------------------------|
E|---------------------------------------------------------------------------|
Chorus:
Guitar 1: Main Riff
Guitar 2: ususal Chords

Outro:
Guitar 2: Ususal Chords
Guitar 1: 
e|5-5-5-5-5-5-5-5-7---5---4---0---5-5-5-5-5-5-5-5-7---0---9---7--------------|
B|5-5-5-5-5-5-5-5-5---5---5---5---7-7-7-7-7-7-7-7-7---7---7---7----x2--------|
G|6-6-6-6-6-6-6-6-4---4---4---4---7-7-7-7-7-7-7-7-7---7---7---7--------------|
D|---------------------------------------------------------------------------|
A|---------------------------------------------------------------------------|
E|---------------------------------------------------------------------------|

e|9-9-9-9-9-9-9-9-121212121212121216161616161616161717171717171717-----------|
B|1010101010101010121212121212121216161616161616161717171717171717-x2--------|
G|---------------------------------------------------------------------------|
D|---------------------------------------------------------------------------|
A|---------------------------------------------------------------------------|
E|---------------------------------------------------------------------------|

End on: A


| /  slide up
| \  slide down
| h  hammer-on
| p  pull-off
| ~  vibrato
| +  harmonic
| x  Mute note
===============================================================================
Tap to rate this tab
 
# A B C D E F G H I J K L M N O P Q R S T U V W X Y Z