Song name
# A B C D E F G H I J K L M N O P Q R S T U V W X Y Z

The Rifles - Shes Got Standards tab

Band name: The Rifles
Album: No Love Lost
Song: She's Got Standards
By: Roy van Rosendaal - TheRifles (roytje10@hotmail.com)

|-------------------------------Intro-----------------------------------|

  Gtr1:
E|--12-12-x-12-12-12--x-12-12-12-x-12-12-12-x-----------|
B|--12-12-x-12-12-12--x-12-12-12-x-12-12-12-x-----------|
G|--12-12-x-12-12-12--x-12-12-12-x-12-12-12-x-----------| _
D|------------------------------------------------------|  |
A|------------------------------------------------------|  |
E|------------------------------------------------------|  |
                                                           |4x
E|--12-15-x-15-15-15--x-15-15-15-x-15-15-15-15-15-------|  |
B|--12-15-x-15-15-15--x-15-15-15-x-15-15-15-15-15-------| _|
G|--12-12-x-12-12-12--x-12-12-12-x-12-12-12-12-12-------| 
D|------------------------------------------------------|
A|------------------------------------------------------|
E|----------------------------------------------------- |

While the 1st guitar plays his riff for the third time
guitar2 comes in.

  Gtr2
E|-------------------------------------------|
B|-------------------------------------------|
G|-------------------------------------------|
D|-------------------------------------------| x2
A|--77777777777777-/99-55555555555555-/99----|
E|-------------------------------------------|

And then:
  Gtr1
E|-----------------------------------------------------|
B|-----------------------------------------------------|
G|-4/9999999999999999--------/11-11-11-11-12-12-12-12--|
D|-------------------99999999--------------------------|
A|-----------------------------------------------------|
E|-----------------------------------------------------|


E|-----------------------------------------------------|
B|-----------------------------------------------------|
G|-999999999999999999-11-11-12-12-11-11----------------|
D|-------------------------------------12-12-9-9-9-9---|
A|-----------------------------------------------------|
E|-----------------------------------------------------|

While Gtr2 Plays:

  Gtr2
E|-----------------------------------------------------|
B|--8-8-8-8-8-8-8-8-8-8-8-8----------------------------|
G|--9-9-9-9-9-9-9-9-9-9-9-9--7-7-7-7-7-7-7-7-7-7-7-7---|
D|--9-9-9-9-9-9-9-9-9-9-9-9--9-9-9-9-9-9-9-9-9-9-9-9---| 2x
A|--7-7-7-7-7-7-7-7-7-7-7-7--9-9-9-9-9-9-9-9-9-9-9-9---|
E|---------------------------7-7-7-7-7-7-7-7-7-7-7-7---|

|-----------------------------Verse 1-----------------------------------|


  Gtr1:
E|--12-12-x-12-12-12--x-12-12-12-x-12-12-12-x---------- |
B|--12-12-x-12-12-12--x-12-12-12-x-12-12-12-x---------- |
G|--12-12-x-12-12-12--x-12-12-12-x-12-12-12-x---------- |  _
D|----------------------------------------------------- |   |
A|----------------------------------------------------- |   |
E|----------------------------------------------------- |   |
                                                            |2x
E|--10-10-x-10-10-10--x-10-10-10-x-10-10-10-10-10-------|   |
B|--10-10-x-10-10-10--x-10-10-10-x-10-10-10-10-10-------|   |
G|--11-11-x-11-11-11--x-11-11-11-x-11-11-11-11-11-------|  _|
D|------------------------------------------------------|
A|------------------------------------------------------|
E|------------------------------------------------------|

  Gtr 2
E|-----------------------------------------------------|
B|-----------------------------------------------------|
G|--9--------------------------------------------------|
D|--9------------------------9-------------------------| 2x
A|--7------------------------9-------------------------|
E|---------------------------7-------------------------|


And then:
  Gtr1
E|-----------------------------------------------------|
B|-----------------------------------------------------|
G|-4/9999999999999999--------/11-11-11-11-12-12-12-12--|
D|-------------------99999999--------------------------|
A|-----------------------------------------------------|
E|-----------------------------------------------------|


E|-----------------------------------------------------|
B|-----------------------------------------------------|
G|-999999999999999999-11-11-12-12-11-11----------------|
D|-------------------------------------12-12-9-9-9-9---|
A|-----------------------------------------------------|
E|-----------------------------------------------------|

While Gt2 Plays:

  Gtr2
E|-----------------------------------------------------|
B|--8-8-8-8-8-8-8-8-8-8-8-8----------------------------|
G|--9-9-9-9-9-9-9-9-9-9-9-9--7-7-7-7-7-7-7-7-7-7-7-7---|
D|--9-9-9-9-9-9-9-9-9-9-9-9--9-9-9-9-9-9-9-9-9-9-9-9---| 2x
A|--7-7-7-7-7-7-7-7-7-7-7-7--9-9-9-9-9-9-9-9-9-9-9-9---|
E|---------------------------7-7-7-7-7-7-7-7-7-7-7-7---|

|--------------------------------Chorus--------------------------------|

  Gtr1
E|------------------------------7-7-x-7-7-7---7-7-x-7-7-7-|
B|------------------------------8-8-x-8-8-7---8-8-x-8-8-7-|
G|--6-6-6-6-6-6-6-6-6-6-6-6--4--9-9-x-9-9-7---9-9-x-9-9-7-|
D|--7-7-7-7-7-7-7-7-7-7-7-7--5--9-9-x-9-9-7---9-9-x-9-9-7-| 2x
A|--7-7-7-7-7-7-7-7-7-7-7-7--5--7-7-x-7-7-7---7-7-x-7-7-7-|
E|--5-5-5-5-5-5-5-5-5-5-5-5--3----------------------------|

  Gtr2
E|--------------------------------------------------------|
B|--------------------------------------------------------|
G|------------------------------9-9---9-9-9---9-9---9-9-7-|
D|--7-7-7-7-7-7-7-7-7-7-7-7--5--9-9---9-9-9---9-9---9-9-7-| 2x
A|--7-7-7-7-7-7-7-7-7-7-7-7--5--7-7---7-7-7---7-7---7-7-7-|
E|--5-5-5-5-5-5-5-5-5-5-5-5--3----------------------------|

|------------------------------Interlude 1-------------------------------|


  Gtr1
E|--------12-12-12-12-12-12-12-12-12-12--------------|
B|--------12-12-12-12-12-12-12-12-12-12--------------|
G|--------12-12-12-12-12-12-12-12-12-12--------------|
D|---------------------------------------------------|
A|---------------------------------------------------|
E|---------------------------------------------------|

  Gtr2
E|--------------------------------|
B|--------------------------------|
G|---9------9-------9--9--9-------|
D|---9------9-------9--9--9-------|
A|---7------7-------7--7--7-------|
E|--------------------------------|


|-------------------------------Verse 2-----------------------------------|


  Gtr1:
E|---------------7---------------------------------------|
B|-8-------8---8--------------------------/--8-8-8--\--*-|
G|-9-----9---8-----7-------7---7----------|--9-9-9--|----| 2x
D|-9---9-----------9-----9---9------------|--9-9-9--|----|
A|-7-7-------------9---9------------------\--7-7-7--/----|
E|-----------------7-7-----------------------------------|

*:this played only the first time before the second time begins!

  Gtr 2
E|-----------------------------------------------------|
B|-----------------------------------------------------|
G|--9--------------------------------------------------|
D|--9------------------------9-------------------------| 2x
A|--7------------------------9-------------------------|
E|---------------------------7-------------------------|


And then:
  Gtr1
E|-----------------------------------------------------|
B|-----------------------------------------------------|
G|-4/9999999999999999--------/11-11-11-11-12-12-12-12--|
D|-------------------99999999--------------------------|
A|-----------------------------------------------------|
E|-----------------------------------------------------|


E|-----------------------------------------------------|
B|-----------------------------------------------------|
G|-999999999999999999-11-11-12-12-11-11----------------|
D|-------------------------------------12-12-9-9-9-9---|
A|-----------------------------------------------------|
E|-----------------------------------------------------|

While Gtr2 Plays:

  Gtr2
E|-----------------------------------------------------|
B|--8-8-8-8-8-8-8-8-8-8-8-8----------------------------|
G|--9-9-9-9-9-9-9-9-9-9-9-9--7-7-7-7-7-7-7-7-7-7-7-7---|
D|--9-9-9-9-9-9-9-9-9-9-9-9--9-9-9-9-9-9-9-9-9-9-9-9---| 2x
A|--7-7-7-7-7-7-7-7-7-7-7-7--9-9-9-9-9-9-9-9-9-9-9-9---|
E|---------------------------7-7-7-7-7-7-7-7-7-7-7-7---|


|-------------------------Chorus--------------------------------------|


  Gtr1
E|------------------------------7-7-x-7-7-7---7-7-x-7-7-7-|
B|------------------------------8-8-x-8-8-7---8-8-x-8-8-7-|
G|--6-6-6-6-6-6-6-6-6-6-6-6--4--9-9-x-9-9-7---9-9-x-9-9-7-|
D|--7-7-7-7-7-7-7-7-7-7-7-7--5--9-9-x-9-9-7---9-9-x-9-9-7-| 2x
A|--7-7-7-7-7-7-7-7-7-7-7-7--5--7-7-x-7-7-7---7-7-x-7-7-7-|
E|--5-5-5-5-5-5-5-5-5-5-5-5--3----------------------------|

  Gtr2
E|--------------------------------------------------------|
B|--------------------------------------------------------|
G|------------------------------9-9---9-9-9---9-9---9-9-7-|
D|--7-7-7-7-7-7-7-7-7-7-7-7--5--9-9---9-9-9---9-9---9-9-7-| 2x
A|--7-7-7-7-7-7-7-7-7-7-7-7--5--7-7---7-7-7---7-7---7-7-7-|
E|--5-5-5-5-5-5-5-5-5-5-5-5--3----------------------------|

|----------------------------Interlude 2----------------------------------|


  Gtr1
E|--------12-12-12-12-12-12-12-12-12-12--0-------------|
B|--------12-12-12-12-12-12-12-12-12-12--0-------------|
G|--------12-12-12-12-12-12-12-12-12-12--0-------------|
D|---------------------------------------0-------------|
A|-----------------------------------------------------|
E|-----------------------------------------------------|

  Gtr2 does nothing here.


|---------------------------solo----------------------------------------|


  Gtr1
E|--------------------------------------------------------------|
B|--15^17v15--12---15^17v15--12---15^17v15--12---15^17v15--12---|
G|--------------------------------------------------------------|
D|--------------------------------------------------------------|
A|--------------------------------------------------------------|
E|--------------------------------------------------------------|

E|--------------------------------------------------------------|
B|--------------------------------------------------------------|
G|--11-11-11-11-11-11-11-11-12-12-12-12-11-11-11-11-11-11-11-11-|
D|--------------------------------------------------------------|
A|--------------------------------------------------------------|
E|--------------------------------------------------------------|

E|--------------------------------------------------------------|
B|--15^17v15--12---15^17v15--12---15^17v15--12---15^17v15--12---|
G|--------------------------------------------------------------|
D|--------------------------------------------------------------|
A|--------------------------------------------------------------|
E|--------------------------------------------------------------|


E|--------------------------------------------------------------|
B|--------------------12-12-15-15-/17-17-17-17------------------|
G|--11-11-12-12-14-14-------------------------------------------|
D|--------------------------------------------------------------|
A|--------------------------------------------------------------|
E|--------------------------------------------------------------|

While gtr2 plays:

  Gtr2
E|-----------------------------------------------------|
B|--8-8-8-8-8-8-8-8-8-8-8-8----------------------------|
G|--9-9-9-9-9-9-9-9-9-9-9-9--7-7-7-7-7-7-7-7-7-7-7-7---|
D|--9-9-9-9-9-9-9-9-9-9-9-9--9-9-9-9-9-9-9-9-9-9-9-9---| 2x
A|--7-7-7-7-7-7-7-7-7-7-7-7--9-9-9-9-9-9-9-9-9-9-9-9---|
E|---------------------------7-7-7-7-7-7-7-7-7-7-7-7---|

And then:

  Gtr1
E|------------------------------------|
B|------------------------------------|
G|-6-6-6-6-6-6-6-6-6-6-6-6--4---------|
D|-7-7-7-7-7-7-7-7-7-7-7-7--5---------|
A|-7-7-7-7-7-7-7-7-7-7-7-7--5---------|
E|-5-5-5-5-5-5-5-5-5-5-5-5--3---------|

E|-------------------------------------------------|
B|-------------------------------------------------|
G|-------------------------------------------------|
D|-------------------------------------------------|
A|--/14-14-12-12-10-10-9-9-/14-14-12-12-10-10-9-9--|
E|-------------------------------------------------|

E|-----------------|
B|-----------------|
G|-6-6-6-6-6-6-----|
D|-7-7-7-7-7-7-----|
A|-7-7-7-7-7-7-----|
E|-5-5-5-5-5-5-----|

E|--------------------------------------------------------------------|
B|--------------------------------------------------------------------|
G|--------------------------------------------------------------------|
D|--------------------------------------------------------------------|
A|-/10-10-10-10-12-12-12-12-/14-14-12-12-10-10-9-9-10-10-12-12-14-14--|
E|--------------------------------------------------------------------|

while Gtr2 plays:


  Gtr1
E|--------------------------------------------------------|
B|--------------------------------------------------------|
G|------------------------------9-9---9-9-9---9-9---9-9-7-|
D|--7-7-7-7-7-7-7-7-7-7-7-7--5--9-9---9-9-9---9-9---9-9-7-| 2x
A|--7-7-7-7-7-7-7-7-7-7-7-7--5--7-7---7-7-7---7-7---7-7-7-|
E|--5-5-5-5-5-5-5-5-5-5-5-5--3----------------------------|


|----------------------------pre-chorus----------------------------------|


  Gtr1:
E|---x-x-x-x-x-x-x-x-x-x-x-x-x-x-x-x-x-x-x-----|
B|---x-x-x-x-x-x-x-x-x-x-x-x-x-x-x-x-x-x-x-----|
G|---x-x-x-x-x-x-x-x-x-x-x-x-x-x-x-x-x-x-x-----| 2x
D|---------------------------------------------|
A|---------------------------------------------|
E|---------------------------------------------|


  Gtr 2
E|-----------------------------------------------------|
B|-----------------------------------------------------|
G|--9--------------------------------------------------|
D|--9------------------------9-------------------------|
A|--7------------------------9-------------------------|
E|---------------------------7-------------------------|


E|-----------------------------------------------------|
B|-----------------------------------------------------|
G|--9--------------------------------------------------|
D|--9------------------------9-------9---9---9-9-9-9---|
A|--7------------------------9-------9---9---9-9-9-9---|
E|---------------------------7-------7---7---7-7-7-7---|


|-------------------------Chorus--------------------------------------|


  Gtr1
E|--------------------------------------------------------------------------|
B|--------------------------------------------------------------------------|
G|-6-6-6-6-6-6-6-6-6-6-6-6--4-----------------------------------------------|
D|-7-7-7-7-7-7-7-7-7-7-7-7--5-----------------------------------------------|
A|-7-7-7-7-7-7-7-7-7-7-7-7--5-/14-14-12-12-10-10-9-9-/14-14-12-12-10-10-9-9-|
E|-5-5-5-5-5-5-5-5-5-5-5-5--3-----------------------------------------------|


E|--------------------------------------------------------------------------|
B|--------------------------------------------------------------------------|
G|-6-6-6-6-6-6-6-6-6-6-6-6--4-----------------------------------------------|
D|-7-7-7-7-7-7-7-7-7-7-7-7--5-----------------------------------------------|
A|-7-7-7-7-7-7-7-7-7-7-7-7--5---/14-14-12-12-10-10-9-9-10-10-12-12-14-14----|
E|-5-5-5-5-5-5-5-5-5-5-5-5--3-----------------------------------------------|

while gtr2 plays:

  Gtr2
E|--------------------------------------------------------|
B|--------------------------------------------------------|
G|------------------------------9-9---9-9-9---9-9---9-9-7-|
D|--7-7-7-7-7-7-7-7-7-7-7-7--5--9-9---9-9-9---9-9---9-9-7-| 2x
A|--7-7-7-7-7-7-7-7-7-7-7-7--5--7-7---7-7-7---7-7---7-7-7-|
E|--5-5-5-5-5-5-5-5-5-5-5-5--3----------------------------|


And then:
second time an long fading note around here.
                                v
  Gtr1
E|------------------------------7-7-x-7-7-7---7-7-x-7-7-7-|
B|------------------------------8-8-x-8-8-7---8-8-x-8-8-7-|
G|--6-6-6-6-6-6-6-6-6-6-6-6--4--9-9-x-9-9-7---9-9-x-9-9-7-|
D|--7-7-7-7-7-7-7-7-7-7-7-7--5--9-9-x-9-9-7---9-9-x-9-9-7-| 2x
A|--7-7-7-7-7-7-7-7-7-7-7-7--5--7-7-x-7-7-7---7-7-x-7-7-7-|
E|--5-5-5-5-5-5-5-5-5-5-5-5--3----------------------------|

  Gtr2                          v
E|--------------------------------------------------------|
B|--------------------------------------------------------|
G|------------------------------9-9---9-9-9---9-9---9-9-7-|
D|--7-7-7-7-7-7-7-7-7-7-7-7--5--9-9---9-9-9---9-9---9-9-7-| 2x
A|--7-7-7-7-7-7-7-7-7-7-7-7--5--7-7---7-7-7---7-7---7-7-7-|
E|--5-5-5-5-5-5-5-5-5-5-5-5--3----------------------------|

If there are is a problem of just something wrong with this tab, please email me!  
                         >And please rate me!< =)
Tap to rate this tab
 
# A B C D E F G H I J K L M N O P Q R S T U V W X Y Z