Song name
# A B C D E F G H I J K L M N O P Q R S T U V W X Y Z

The Right Coast - This Is Now tab

2nd tab!
*Only Rhythm sorry. Just comment if there's a correction.*


Intro
e|----------------------------------|
b|----------------------------------|
g|------------7---------------------|
d|------------x(continuously)-------|
a|------------5---------------------|
d|----------------------------------|

e|-------------------------------------|
b|-------------------------------------|
g|-------------------------------------|
d|--4/55---7/99----4/55--77-77-777-----|
a|--4/55---7/99----4/55--77-77-777-----| 
d|--4/55---7/99----4/55--77-77-777-----| 

Part 2

e|-----------------------|
b|-----------------------|
g|--7--------------------|
d|--7(x8)-5------7-------|
a|--5-----5(x8)--7(x16)--|
d|--------5------7-------|


Chorus
e|----------------------------|
b|----------------------------|
g|--7-------------------------|
d|--7(x8)-5------7------------|
a|--5-----5(x8)--7(x16)-------|
d|--------5------7------------|

e|----------------------------|
b|----------------------------|
g|----------------------------|
d|--9-----5-----7-------------|
a|--9(x8)-5(x8)-7(x16)--------|
d|--9-----5-----7-------------|

Bridge
e|------------------------------------------|
b|------------------------------------------|
g|------------------------------------------|
d|--9-77-99----555--------0000---77777777---|
a|--9-77-99----555--------0000---77777777---|
d|--9-77-99----555--------0000---77777777---|

e|----------------------------|
b|----------------------------|
g|----------------------------|
d|--5555555555----7777777777--|
a|--5555555555----7777777777--|
d|--5555555555----7777777777--|
Tap to rate this tab
 
# A B C D E F G H I J K L M N O P Q R S T U V W X Y Z