Song name
# A B C D E F G H I J K L M N O P Q R S T U V W X Y Z

The Right Coast - Madeline tab

-------------------------------------------------------------------------------
			     Madeline - The Right Coast
-------------------------------------------------------------------------------
Tabbed by:lipe_y
Email:felipeyabiku@hotmail.com

Tuning:Drop D

Note:

This is my first tab sooo i got a little confused(actually, lazy) about the 
strumming.. you better listen to the song to get it right :)

intro:

e|---------------------|
B|---------------------|
G|7-7-777777--7777-9999|        2x
D|7-7-777777--5555-7777|
A|0-0-000000--5555-7777|
D|0-0-000000--5555-7777|

verse:

e|-----------------|
B|-----------------|
G|77777777-77777777|            4x
D|77777777-55555555|
A|00000000-55555555|
D|00000000-55555555|

"cuz its all my fault..."
e|-----------|
B|-----------|
G|7~---7~----|
D|7~---5~----|
A|0~---5~----|
D|0~---5~----|

chorus:

e|-----------------|
B|-----------------|
G|77777777-77777777|            4x
D|77777777-55555555|
A|00000000-55555555|
D|00000000-55555555|

intro:

e|---------------------|
B|---------------------|
G|7-7-777777--7777-9999|        2x
D|7-7-777777--5555-7777|
A|0-0-000000--5555-7777|
D|0-0-000000--5555-7777|

verse:

e|-----------------|
B|-----------------|
G|77777777-77777777|            4x
D|77777777-55555555|
A|00000000-55555555|
D|00000000-55555555|

"cuz its all my fault..."
e|-----------|
B|-----------|
G|7~---7~----|                  2x
D|7~---5~----|
A|0~---5~----|
D|0~---5~----|

chorus:

e|-----------------|
B|-----------------|
G|77777777-77777777|            4x
D|77777777-55555555|
A|00000000-55555555|
D|00000000-55555555|

"throughout the brightest city..."

e|---------------------|
B|---------------------|
G|7-7-777777--7777-9999|        
D|7-7-777777--5555-7777|
A|0-0-000000--5555-7777|
D|0-0-000000--5555-7777|

end: 
e|--|
B|--|
G|7~|        
D|7~|
A|0~|
D|0~|



************************************

| /   slide up
| \   slide down
| h   hammer-on
| p   pull-off
| ~   vibrato
| +   harmonic
| x   Mute note
| b   Bend
| pb  Pre-bend
| br  Bend release
| pbr Pre-bend release
| brb Bend release bend

************************************
Tap to rate this tab
 
# A B C D E F G H I J K L M N O P Q R S T U V W X Y Z