The Riverside Worship Project - Hallelujah Acoustic tab

This is the acoustic part. Continue the tab through "...Softly spoken over me...".
Pick up the strumming at that point and follow the chords.

Capo: 2

Intro:

|--------------------------------------------------------------|
|--------------------------------------------------------------|
|------0-----0-----0-----0-----2-----2-----2-----0-----0-----0-|
|----0-----0-----0-----0-----2-----2-----2-----0-----0-----0---|
|--------------------------------------------------------------|
|--3-----3-----3-----2-----0-----0-----0-----2-----3-----3-----|

Verse 1:

|--------------------------------------------------------------------------------------|
|------------------------------------------------------1-----1-----1-----1-------------|
|------0-----0-----0-----0-----2-----2-----2-----2-----------------------------0-----0-|
|----0-----0-----0-----0-----2-----2-----2-----2-----2-----2-----2-----2-----0-----0---|
|--------------------------------------------------3-----3-----3-----3-----------------|
|--3-----3-----3-----2-----0-----0-----0-----0-----------------------------3-----3-----|

|--------------|
|--------------|
|------0-----0-|
|----0-----0---|
|--------0-----|
|--2-----------|


I'm like a photograph
A picture of the grace you have
Softly spoken over me

G	               D/F#	       Em
I'm a flower in early spring

A most weak and needy thing
    C     	             G       D/F#
But in your hands I'll grow


G	     D/F#
Halleluiah

Em
Halleluiah

C             G      D/F#
Halleluiah to you


G	              D/F#	       Em
If you are the sun in the sky
                           C
Then I am a tree reaching high

      G	D/F#
For you
G	            D/F#	Em
I am the evidence

Of glory that heaven sent
     C	                      G         D/F#
We already are what we're becoming


G	     D/F#
Halleluiah

Em
Halleluiah

C             G      D/F#
Halleluiah to you


G	     D/F#
Halleluiah

Em
Halleluiah

C             G      D/F#
Halleluiah to you


Halleluiah, Halleluiah, Halleluiah


G	                           D/F#
We'll join the angels with all of their singing
Em
Ceaseless praise is all that we're bringing
                C	             G    D/F#
We're singing to you, Halleluiah,	Hallelu

G	                           D/F#
We'll join the angels with all of their singing
Em
Ceaseless praise is all that we're bringing
                C	             G    D/F#
We're singing to you, Halleluiah,	Hallelu

G	     D/F#
Halleluiah

Em
Halleluiah

C             G      D/F#
Halleluiah to you

G	     D/F#
Halleluiah

Em
Halleluiah

C             G      D/F#
Halleluiah to you

G	                           D/F#
We'll join the angels with all of their singing
Em
Ceaseless praise is all that we're bringing
                C	             G    D/F#
We're singing to you, Halleluiah,	Hallelu

G	                           D/F#
We'll join the angels with all of their singing
Em
Ceaseless praise is all that we're bringing
                C	             G    D/F#
We're singing to you, Halleluiah,	Hallelu, Hallelu
Tap to rate this tab
 
# A B C D E F G H I J K L M N O P Q R S T U V W X Y Z