Song name
# A B C D E F G H I J K L M N O P Q R S T U V W X Y Z

The Robot Ate Me - Goodnight I Almost Died tab

~~~~~~~~~~~~~~~~~~~~~~~~~~~~~~~~~~~~~~~~~~~~~~~~~~~~~~~~~~~~~~~~~~~~~~~~~~~~~~~~~~
~~ badly tabbed by andrew mole ~ andrew[@]catbeef[dot]com ~ twitter.com/catbeef ~~
~~~~~~~~~~~~~~~~~~~~~~~~~~~~~~~~~~~~~~~~~~~~~~~~~~~~~~~~~~~~~~~~~~~~~~~~~~~~~~~~~~

I was quite shocked when I saw that the robot ate me had only one tabbed out song on the 
entire internet!
Now my hearing isn't very good and my musical ability is questionable, but this is what 
I have come up with for this wonderful song~

e|----5---5-----1-0------|
B|-----------------------|
G|--5---5---5s3----------|
D|-----------------------|
A|-----------------------|
E|-----------------------| x 13

e|----5---5-----1-0---1--|
B|------------------3----|
G|--5---5---5s3----------|
D|-----------------------|
A|-----------------------|
E|-----------------------|

e|-----------------------|
B|-----------------------|
G|-----------------------|
D|----10---3-2------10---|
A|--8----1-----1--8------|
E|-----------------------|

e|-----------------------|
B|-----------------------|
G|-----------------------|
D|----3-2------10--------|
A|--1-----1--8-----------|
E|-----------------------| x 6

e|-----------------------|
B|-----------------------|
G|-----------------------|
D|----3-2----------------|
A|--1-----1--8-----------|
E|-----------------------|

e|----5---5-----1-0------|
B|-----------------------|
G|--5---5---5s3----------|
D|-----------------------|
A|-----------------------|
E|-----------------------|

e|----5---5-----1-0------|
B|------------------3----|
G|--5---5---5s3----------|
D|-----------------------|
A|-----------------------|
E|-----------------------| x 2

e|----5---5-----1-0---1--|
B|------------------3----|
G|--5---5---5s3----------|
D|-----------------------|
A|-----------------------|
E|-----------------------|

After this I cannot hear through the noise of everything else well enough to be confident..
but maybe this will inspire others to tab out some of these wonderful songs!~
Tap to rate this tab
 
# A B C D E F G H I J K L M N O P Q R S T U V W X Y Z