Guitaretab - guitar tabs
Song name
# A B C D E F G H I J K L M N O P Q R S T U V W X Y Z

The Rock And Roll Machine - Creature Of The Night tab


I saw these guys play the Big Day Out for the first time and I was watching Matt the 
time and im pretty sure this is how he plays this. I donít particularly like this version 
the A and Em chords donít sound as chunky as the power chord version. Enjoy

The Rock and Roll Machine
Creature Of The Night
The Rock and Roll Machine


Matt Stroobant plays with a blues distortion, fuzz and also fuzz-wah so it helps with 
sound if you have a version of these but a single fuzz pedal combined with amp gain will 
fine.


(Fuzz On)
Intro
|  ------------------------------------------------------------------------- --- |
|  --2-------------------------------------------------------------------------- |
|  --2---------------------------------------------------------------------- --- |
|  --2---------- 2---------------------------------------------------------- --- |
|  --0-----lr----2----lr---------------------------------------------------- --- |
|  --------------0---------------------------------------------------------- --- |

(Fuzz Off)
Verse
|  --------------------------------------------------------------------------- -- |
|  ---x-x-x-x-x-x-x-x----------------------------------------------------- ------ |
|  ---x-x-x-x-x-x-x-x---2------------------------------------------------ ------- |
|  ---x-x-x-x-x-x-x-x---2---2-------------------------------------------- ------- |   x4
|  ------------------------------2-------------------------------------------- -- |
|  ------------------------------0-------------------------------------------- -- |

(Fuzz On)
Bridge
|  ------------------------------------------------------------------------- -- |
|  ----------------------------2------------2------------------------------ --- |
|  -0-0-0-0-0-0-0-0-0-----2-------------2----------------------------- -------- |
|  -2-2-2-2-2-2-2-2-2-----2------2-----2---2-------------------------- -------- |
|  -2-2-2-2-2-2-2-2-2-----0------2-----0---2-------------------------- -------- |
|  -0-0-0-0-0-0-0-0-0------------0----------0-------------------------- ------- |

(Fuzz Off)
Verse
|  --------------------------------------------------------------------------- -- |
|  ---x-x-x-x-x-x-x-x---------------------------------------------------- ------- |
|  ---x-x-x-x-x-x-x-x---2------------------------------------------------- ------ |
|  ---x-x-x-x-x-x-x-x---2--2---------------------------------------------- ------ |   x4
|  ----------------------------2---------------------------------------------- -- |
|  ----------------------------0---------------------------------------------- -- |

(Fuzz On)
Bridge
|  ---------------------------------------------------------------- |
|  ----------------------------2------------2--------2----------2-- |
|  -0-0-0-0-0-0-0-0-0------2------------2--------2---------2------- |
|  -2-2-2-2-2-2-2-2-2------2-----2-----2---2----2---2-----2----2--- |
|  -2-2-2-2-2-2-2-2-2------0-----2-----0---2----0---2-----0----2--- |
|  -0-0-0-0-0-0-0-0-0-------------0---------0-------0------------0- |
[ Tab from: http://www.guitaretab.com/t/the-rock-and-roll-machine/83634.html ]
------------------------------------------------------------------------- -- |
------------------------------------------------------------------------- -- |
------------------------------------------------------------------------- -- |
---4-4-4-4-4-4-4-4-4-4-4-4-4-4-4-4------------------------------- ---------- |
---4-4-4-4-4-4-4-4-4-4-4-4-4-4-4-4------------------------------- ---------- |
---2-2-2-2-2-2-2-2-2-2-2-2-2-2-2-2------------------------------- ---------- |

Chorus
|  ------------------------------------------ |
|  ------------------------------------------ |
|  --2-2-2-2--------------------------------- |
|  --2-2-2-2---5-5-5-5---7-7-7-7---9-9-9-9--- |
|  --0-0-0-0---5-5-5-5---7-7-7-7---9-9-9-9--- |   x4
|  --------------3-3-3-3---5-5-5-5---7-7-7-7- |

Now theres a wah solo in here but I donít have the right pedals but there is lots of 
and I think it uses a 10-12 pentatonic scale.

(Fuzz Off)
Verse 2
|  ------------------------------------------------------------------------- --- |
|  --x-x-x-x-x-x-x-x-x-x-x-x-x-x-x-x-------------------------------- ----------- |
|  --x-x-x-x-x-x-x-x-x-x-x-x-x-x-x-xó(x4)----2------------------- -------------- |
|  --x-x-x-x-x-x-x-x-x-x-x-x-x-x-x-x------------2--2-------- ------- ----------- |
|  ---------------------------------------------------------2--------------- --- |
|  -------------------------------------------------------------------------- -- |

(Fuzz On)
Bridge

|  ----------------------------------------------------------------- |
|  ----------------------------------------------------------------- |
|  ---0-0-0-0-0-0-0----0----0-0-0-0-0-0-0-0----0----0-0-0-0-0-0-0-0- |
|  ---2-2-2-2-2-2-2----0----2-2-2-2-2-2-2-2----0----2-2-2-2-2-2-2-2- |
|  ---2-2-2-2-2-2-2----0----2-2-2-2-2-2-2-2----0----2-2-2-2-2-2-2-2- |
|  ---0-0-0-0-0-0-0----0----0-0-0-0-0-0-0-0----0----0-0-0-0-0-0-0-0- |

------------------------------------------------------------------------- -- |
------------------------------------------------------------------------- -- |
------------------------------------------------------------------------- -- |
--4-4-4-4-4-4-4-4-4-4-4-4-4-4-4----------------------------------- --------- |
--4-4-4-4-4-4-4-4-4-4-4-4-4-4-4----------------------------------- --------- |
--2-2-2-2-2-2-2-2-2-2-2-2-2-2-2----------------------------------- --------- |

Chorus
|  ------------------------------------------ |
|  ------------------------------------------ |
|  --2-2-2-2--------------------------------- |
|  --2-2-2-2---5-5-5-5---7-7-7-7---9-9-9-9--- |
|  --0-0-0-0---5-5-5-5---7-7-7-7---9-9-9-9--- |   x4
|  --------------3-3-3-3---5-5-5-5---7-7-7-7- |

He plays the solo again, then after:
Outro
|  ------------------------------------------------------------------------- -- |
|  ------------------------------------------------------------------------- -- |
|  --------1----------1------------1----------------0--------------------- ---- |
|  ---7--- 2----7----2---7--------2----------------2--------------------- ----- |
|  ---7----2----7----2---7---lr---2---lr-----------2--------------------- ----- |
|  ---5----0----5----0---5--------0----------------0--------------------- ----- |


Legend:
Lr-let ring
ho-hammer on
po-pull of
b-bend
x-dead note
h(#)-harmonic(hash means fret no.)
HB-HOLD bend( till you change fret)
f-feedback(by using or amp or high volume)


Neways, I hope the tab is decent, please rate it and if you like Kiwi Rock and Roll or 
got some suggestions then email me on jamesdonaldson@hot-shot.com

cheers


http://www.amplifier.co.nz/artist/23052/rock_n_roll_machine.html
http://www.music.net.nz/artists/884.html
http://www.myspace.com/therockandrollmachine
Related for Creature Of The Night tab