Song name
# A B C D E F G H I J K L M N O P Q R S T U V W X Y Z

The Rock And Roll Machine - Wild For You tab

Help us improve GuitareTab! Take a short survey!
The Rock and Roll Machine
Wild For You
The Rock and Roll Machine

Matt Stroobant plays with a blues distortion, fuzz and also fuzz-wah so it helps with 
sound if you have a version of these but a single fuzz pedal combined with amp gain will 
fine.

Intro(Fuzz On)
|  ------------------------------------------------------------------------------------ |
|  ------------------------------------------------------------------------------------ |
|  ------------------------------------------------------------------------------------ |
|  ------------------------------------------------------------------------------------ |
|  -------------------------4-4-4-4---2-2-2-2-------------------------4-4-4-4--2-2-2-2- |
|  --2-2-2-2--4-4-4-4----------------------------2-2-2-2--4-4-4-4---------------------- |


| ------------------------------------------------------------------------------------ |
| ------------------------------------------------------------------------------------ |
| ------------------------------------------------------------------------------------ |
| ------------------------------------------------------------------------------------ |
| -------------------------4-4-4-4---2-2-2-2-------------------------4-4-4-4--2-2-2-2- |
| --2-2-2-2--4-4-4-4----------------------------2-2-2-2--4-4-4-4---------------------- |

Verse
| --------------------------------------------------------------------------------------- |
| --------------------------------------------------------------------------------------- |
| --5 HB-5-5-5-5-5-5-5-5-5-5-5-5-5-5-5--------------------------------------------------- |
| --------------------------------------------------------------------------------------- |
| ----------------------------------------------------------------------2-2-2-2--4-4-4-4- |
| -------------------------------------------------2-2-2-2--4-4-4-4---------------------- |

| --------------------------------------------------------------------------------------- |
| --------------------------------------------------------------------------------------- |
| --3 HB-3-3-3-3-3-3-3-3-3-3-3-3-3-3-3--------------------------------------------------- |
| --------------------------------------------------------------------------------------- |
| ----------------------------------------------------------------------2-2-2-2--4-4-4-4- |
| -------------------------------------------------2-2-2-2--4-4-4-4---------------------- |

| ----------------------------------------------------------------- |
| ----------------------------------------------------------------- |
| --3 HB-3-3-3-3-3-3-3-3-3-3-3-3-3-3-3--5-5-5-5-5-5--9-9-9-9-9-9-9- |
| ----------------------------------------------------------------- |
| ----------------------------------------------------------------- |
| ----------------------------------------------------------------- |

Chorus
| ------------------------------------------------------------------ |
| ------------------------------------------------------------------ |
| ----------2-2-------------5-5--3-3-------2-2--------------5-5-5-5- |
| ----5----2-2--2-2---5---5-5--3-3---5---2-2---2-2---5--5-5-5-5----- |
| ----5----------2-2---5---3-3--1-1---5----------2-2---5--3-3-3-3--- |
| ----3-----------------3----------------3-----------------3-------- |

Verse
| --------------------------------------------------------------------------------------- |
| --------------------------------------------------------------------------------------- |
| --3 HB 3-3-3-3-3-3-3-3-3-3-3-3-3-3-3--------------------------------------------------- |
| --------------------------------------------------------------------------------------- |
| ----------------------------------------------------------------------2-2-2-2--4-4-4-4- |
| -------------------------------------------------2-2-2-2--4-4-4-4---------------------- |

| --------------------------------------------------------------------------------------- |
| --------------------------------------------------------------------------------------- |
| --3 HB-3-3-3-3-3-3-3-3-3-3-3-3-3-3-3--------------------------------------------------- |
| --------------------------------------------------------------------------------------- |
| ----------------------------------------------------------------------2-2-2-2--4-4-4-4- |
| -------------------------------------------------2-2-2-2--4-4-4-4---------------------- |

Bridge
| -------------------------------------------------------------------------------------------- |
| -------------------------------------------------------------------------------------------- |
| ---------------------------6-6-6-6---4-4-4-4------------------------------6-6-6-6---4-4-4-4- |
| ---4-4-4-4---6-6-6-6---6-6-6-6---4-4-4-4-------4-4-4-4--6-6-6-6---6-6-6-6---4-4-4-4---- ---- |
| ---4-4-4-4---6-6-6-6---4-4-4-4---2-2-2-2-------4-4-4-4--6-6-6-6---4-4-4-4---2-2-2-2---- ---- |
| ---2-2-2-2---4-4-4-4-------------------------------2-2-2-2--4-4-4-4------------------------- |

| -------------------------------------------------------------------------------------------- |
| -------------------------------------------------------------------------------------------- |
| ---------------------------6-6-6-6---4-4-4-4------------------------------6-6-6-6---4-4-4-4- |
| ---4-4-4-4---6-6-6-6---6-6-6-6---4-4-4-4-------4-4-4-4--6-6-6-6---6-6-6-6---4-4-4-4---- ---- |
| ---4-4-4-4---6-6-6-6---4-4-4-4---2-2-2-2-------4-4-4-4--6-6-6-6---4-4-4-4---2-2-2-2---- ---- |
| ---2-2-2-2---4-4-4-4-------------------------------2-2-2-2--4-4-4-4------------------------- |

Chorus
| ------------------------------------------------------------------ |
| ------------------------------------------------------------------ |
| ----------2-2-------------5-5--3-3-------2-2--------------5-5-3-3- |
| ----5----2-2--2-2---5---5-5--3-3---5---2-2---2-2---5--5-5-3-3----- |
| ----5----------2-2---5---3-3--1-1---5----------2-2---5--3-3-1-1--- |
| ----3-----------------3----------------3-----------------3-------- |

| ----------------------------------------------- |
| ----------------------------------------------- |
| ----------2-2-------------5-5--3-3------------- |
| ----5----2-2--2-2---5---5-5--3-3---5-5-5-5----- |
| ----5----------2-2---5---3-3--1-1---5-5-5-5---- |
| ----3-----------------3----------------3-3-3-3- |

Solo (Wah On)
| ----------------------------------------------------------------------------------------------- |
| -------h-12--12--12-------h-12-12-12------h-12-12-12------h-12-12-12---12-14-12-14-12-14-12-14- |
| --10--h-12--12--12---10-h-12-12-12--10-h-12-12-12--10-h-12-12-12---12-14-12-14-12-14-12-14----- |
| --10---------------------10----------------10-----------------10------------------------------- |
| ----------------------------------------------------------------------------------------------- |
| ----------------------------------------------------------------------------------------------- |


| --------------------------------------------------------------------------------- |
| --14-HB 14-14-14-14-14-14-14--15-15-15-15--16-16-16b-16b-17-HB-17-17-17-17-17-17- |
| --14-HB-14-14-14-14-14-14-14--15-15-15-15--16-16-16b-16b-17-HB-17-17-17-17-17-17- |
| --------------------------------------------------------------------------------- |
| --------------------------------------------------------------------------------- |
| --------------------------------------------------------------------------------- |

The number of times you strum is only a guide but its best if you keep your rhythm hand 
the G and B strings through the whole solo.

Bridge
| -------------------------------------------- |
| -------------------------------------------- |
| ----------2--------------5--3--------2------ |
| ----5----2---2----5-----5--3---5---2-----2-- |
| ----5--------2-----5----3--1----5---------2- |
| ----3--------------3-------------3---------- |

Verse
| -------------------------------------------------------------------------------------------- |
| -------------------------------------------------------------------------------------------- |
| ---------------------------6-6-6-6---4-4-4-4------------------------------6-6-6-6---4-4-4-4- |
| ---4-4-4-4---6-6-6-6---6-6-6-6---4-4-4-4-------4-4-4-4--6-6-6-6---6-6-6-6---4-4-4-4---- ---- |
| ---4-4-4-4---6-6-6-6---4-4-4-4---2-2-2-2-------4-4-4-4--6-6-6-6---4-4-4-4---2-2-2-2---- ---- |
| ---2-2-2-2---4-4-4-4-------------------------------2-2-2-2--4-4-4-4------------------------- |

| -------------------------------------------------------------------------------------------- |
| -------------------------------------------------------------------------------------------- |
| ---------------------------6-6-6-6---4-4-4-4------------------------------6-6-6-6---4-4-4-4- |
| ---4-4-4-4---6-6-6-6---6-6-6-6---4-4-4-4-------4-4-4-4--6-6-6-6---6-6-6-6---4-4-4-4---- ---- |
| ---4-4-4-4---6-6-6-6---4-4-4-4---2-2-2-2-------4-4-4-4--6-6-6-6---4-4-4-4---2-2-2-2---- ---- |
| ---2-2-2-2---4-4-4-4-------------------------------2-2-2-2--4-4-4-4------------------------- |

| -------------------------------------------------------------------------------------------- |
| -------------------------------------------------------------------------------------------- |
| ---------------------------6-6-6-6---4-4-4-4------------------------------6-6-6-6---4-4-4-4- |
| ---4-4-4-4---6-6-6-6---6-6-6-6---4-4-4-4-------4-4-4-4--6-6-6-6---6-6-6-6---4-4-4-4---- ---- |
| ---4-4-4-4---6-6-6-6---4-4-4-4---2-2-2-2-------4-4-4-4--6-6-6-6---4-4-4-4---2-2-2-2---- ---- |
| ---2-2-2-2---4-4-4-4-------------------------------2-2-2-2--4-4-4-4------------------------- |

Chorus
| ------------------------------------------------------------------ |
| ------------------------------------------------------------------ |
| ----------2-2-------------5-5--3-3-------2-2--------------5-5-3-3- |
| ----5----2-2--2-2---5---5-5--3-3---5---2-2---2-2---5--5-5-3-3----- |
| ----5----------2-2---5---3-3--1-1---5----------2-2---5--3-3-1-1--- |
| ----3-----------------3----------------3-----------------3-------- |

| ----------------------------------------------------------------------- |
| ----------------------------------------------------------------------- |
| ----------2-2-------------5-5--3-3------------------------------------- |
| ----5----2-2--2-2---5---5-5--3-3---5-5-5-5-5-5-5-5--5----7---5---2----- |
| ----5----------2-2---5---3-3--1-1---5-5-5-5-5-5-5-5--5----7---5---2---- |
| ----3-----------------3----------------3-3-3-3-3-3-3-3--3----5---3---0- |

Legend:
Lr-let ring
h-hammer on
p-pull of
b-bend
x-dead note
h(#)-harmonic(hash means fret no.)
HB-HOLD bend( till you change fret)
f-feedback(by using or amp or high volume)


Neways, I hope the tab is decent, please rate it and if you like Kiwi Rock and Roll or 
got some suggestions then email me on jamesdonaldson@hot-shot.com

cheers
Related for Wild For You tab