Guitaretab - guitar tabs
Song name
# A B C D E F G H I J K L M N O P Q R S T U V W X Y Z

The Rock And Roll Machine - Get This Feelin tab


The Rock And Roll Machine
Get This Feeliní
The Rock And Roll Machine


Matt Stroobant plays with a blues distortion, fuzz and also fuzz-wah so it helps with 
sound if you have a version of these but a single fuzz pedal combined with amp gain will 
fine.


This part joins in with the bass after a while.
|  ---------------------------------------------------------------------------- |
|  ---------------------------------------------------------------------------- |
|  -7--5--3----x-x-x-x-x-x-x-x-x-x-x-x-x-x-x-x-x-x-x-x-x-x-x-x-x-x-x-x-x-x-x--- |
|  --------------x-x-x-x-x-x-x-x-x-x-x-x-x-x-x-x-x-x-x-x-x-x-x-x-x-x-x-x-x-x-x- |
|  --------------x-x-x-x-x-x-x-x-x-x-x-x-x-x-x-x-x-x-x-x-x-x-x-x-x-x-x-x-x-x-x- |
|  ---------------------------------------------------------------------------- |

Main Riff
|  ----------------------------------------------------------------------------------------------------------- |
|  ------------------------------------------------------------------------------------------------5-h7p---9b- |
|  --7-10--7-7-10b--7-7-10-7-7-10b--7-10--7-7-10b-7-7-10b--7-7-10-7-7-10---7b------------------ -------------- |
|  ----------------------------------------------------------------------------------------------------------- |
|  ----------------------------------------------------------------------------------------------------------- |
|  ----------------------------------------------------------------------------------------------------------- |
[ Tab from: http://www.guitaretab.com/t/the-rock-and-roll-machine/85156.html ]
Once again, there is no way I can tab the wah-solo so this is the next verse.
|  --------------------------------------------------- |
|  --------------------------------------------------- |
|  -7-5-3--2-2-2-2-2-2-2-2-2-2-2-2--7-7-7-5-5-5-3-3-3- |
|  --------------------------------------------------- |
|  --------------------------------------------------- |
|  --------------------------------------------------- |

Keep playing that until this comes around again.

|  ----------------------------------------------------------------------------------------------------------- |
|  ------------------------------------------------------------------------------------------------5-h7p---9b- |
|  --7-10--7-7-10b--7-7-10-7-7-10b--7-10--7-7-10b-7-7-10b--7-7-10-7-7-10---7b------------------ -------------- |
|  ----------------------------------------------------------------------------------------------------------- |
|  ----------------------------------------------------------------------------------------------------------- |
|  ----------------------------------------------------------------------------------------------------------- |

This is whatís played underneath the noise.
|  ----------------------------------------------------------- -- |
|  ----------------------------------------------------------- -- |
|  --7-7-7-7-7-7-7-7-7--7-7--5-5--3-3----------------- ---------- |
|  --7-7-7-7-7-7-7-7-7--7-7--5-5--3-3------------------ --------- |
|  --5-5-5-5-5-5-5-5-5------------------------------------ ------ |
|  ----------------------------------------------------------- -- |

Legend:
Lr-let ring
h-hammer on
p-pull of
b-bend
x-dead note
h(#)-harmonic(hash means fret no.)
HB-HOLD bend( till you change fret)
f-feedback(by using or amp or high volume

Neways, I hope the tab is decent, please rate it and if you like Kiwi Rock and Roll or 
got some suggestions then email me on jamesdonaldson@hot-shot.com

cheers
Related for Get This Feelin tab