Song name
# A B C D E F G H I J K L M N O P Q R S T U V W X Y Z

The Rock N Roll Worship Circus - The Undiscovered tab

-------------------------------------------------------------------------------
		The Undiscovered - The listening
-------------------------------------------------------------------------------
Tabbed by: Just_Chaz
Email: murdermug@hotmail.com

Tuning: standard


Main Riff played throughout the whole song.
e|---------------------------------------------------|
B|---------------------------------------------------|
G|---------------------------------------------------|
D|----2-0-0-2p0-5-2-0-0-2p0---2-0-0-2p0-5-2-0-0-2p0--|
A|---------------------------------------------------|
E|--0-----------------------0------------------------|

e|---------------------------------------------------|
B|---------------------------------------------------|
G|---------------------------------------------------|
D|----2-0-0-2p0-5-2-0-0-2p0---2-0-0-2p0-5-2-0-0-2p0--|
A|--3-----------------------3------------------------|
E|---------------------------------------------------|

e|---------------------------------------------------|
B|---------------------------------------------------|
G|---------------------------------------------------|
D|----2-0-0-2p0-5-2-0-0-2p0---2-0-0-2p0-5-2-0-0-2p0--|
A|--0-----------------------0------------------------|
E|---------------------------------------------------|

e|---------------------------------------------------|
B|---------------------------------------------------|
G|------------------------------------------0-2p0----|
D|----2-0-0-2p0-5-2-0-0-2p0---2-0-0-2p0-5-2-------2--|
A|---------------------------------------------------|
E|--0-----------------------0------------------------|


Guitar licks over verses
						  Upstroke: V
e|------------------|  |---------------------------------------------0-------|
B|----8----10----8--|  |---------------------------------------------0-------|
G|--9----9-----9----|  |--9~-9-11~-11-11b12~-9~~-9~-9-11~-11-11b12~--9-------|
D|------------------|  |---------------------------------------------9-------|
A|------------------|  |---------------------------------------------7-------|
E|------------------|  |---------------------------------------------0-------|

Guitar Solo
e|-------------------------------------------------------------------------|
B|--15b17~-15b17r15--------------15----------------------------------------|
G|------------------12~-12-14b16----b16-12~--------------------------------|
D|------------------------------------------12h14-14\-12h14\-12h14-14-14~--|
A|-------------------------------------------------------------------------|
E|-------------------------------------------------------------------------|

e|--------12-------15p12-------12~-----------------------------------------------|
B|--15b17----17r15-------15b17~----15p12-------12-------15p12--------------------|
G|---------------------------------------14b16----16r14-------14p12-14b16r14p12--|
D|-------------------------------------------------------------------------------|
A|-------------------------------------------------------------------------------|
E|-------------------------------------------------------------------------------|

e|----------------------------------------------------------------------|
B|----------------------------------------------------------------------|
G|-----14p12-------12--------------------------------------------12b14--|
D|--14-------14p12----14p12----14p12-----------------------12h14--------|
A|--------------------------14-------14p12p10--------12h14--------------|
E|--------------------------------------------12p10---------------------|

e|-----------------------------------------------15p12-15p12-15-17p15-19p15--|
B|-----------------------------------15h17-15h17-----------------------------|
G|--b14-b14-b14-b14-b14-b14r12~b14~------------------------------------------|
D|---------------------------------------------------------------------------|
A|---------------------------------------------------------------------------|
E|---------------------------------------------------------------------------|

e|--20p15-19------------19------------------------------------------------|
B|-----------19--20~-------22~b24-b24-b24-b24r22p20-------15b17r15p12-----|
G|-------------------21-----------------------------21-16-------------14--|
D|------------------------------------------------------------------------|
A|------------------------------------------------------------------------|
E|------------------------------------------------------------------------|

e|------------------------14----15--------12-----------------------------------|
B|--15p12-12-12-15p12\-17b19-18b20--15b17----17r15p12--------------------------|
G|----------------------------------------------------15p14p12----14p13p12-----|
D|-------------------------------------------------------------14----------14--|
A|-----------------------------------------------------------------------------|
E|-----------------------------------------------------------------------------|

e|---------------------------------------------------------------------------|
B|--12~----12~----12----12~----12--------------------------------------------|
G|--12~----12~----12----12~----12h14-14b16-b16-b16-b16-b16r14-b16r14p12------|
D|------14-----14----14-----14------------------------------------------14~--|
A|---------------------------------------------------------------------------|
E|---------------------------------------------------------------------------|


| /  slide up
| \  slide down
| h  hammer-on
| p  pull-off
| ~  vibrato
| +  harmonic
| x  Mute note
| TP Trem pick
| b  Bend note
| r  Release note
| Wh Whammy bar
===============================================================================


please note that i have tabbed this following the 2005 version of the song as featured in:
"the rock n roll worship circus becomes the listening" EP.
Any problems or queries, send me an email.
Chaz
Tap to rate this tab
# A B C D E F G H I J K L M N O P Q R S T U V W X Y Z