The Rock N Roll Worship Circus - Like I Do tab

-------------------------------------------------------------------------------
			                   Like I do - The Rock N Roll Worship Circus
-------------------------------------------------------------------------------
Tabbed by: Chris
Email: cj.coxhead@gmail.com

Tuning: Standard (EADGBE)

   INTRO
      *Piano Starts off and guitar comes in with this small rift
e|---------------------------------------------------------------------------|
B|--10b11-10b11-10b11br10-8-10-8-10b11br10-8---------------------------------|
G|-------------------------------------------7-5-----------------------------|
D|---------------------------------------------------------------------------|
A|---------------------------------------------------------------------------|
E|---------------------------------------------------------------------------|

   VERSE 1
      *No guitar in verse 1

   VERSE 2
e|-----12--15--14-12-------12--15--14-12------11------11-------12----10------|
B|---13------------------12-----------------12--12--12-------12----10--------|
G|-14----14--14--------12----12--12-------11------11-------12----11----------|
D|---------------------------------------------------------------------------|
A|---------------------------------------------------------------------------|
E|---------------------------------------------------------------------------|

e|-----12--14--12------11--12--14------15--14--12----------------------------|
B|---12--------------12--------------12--------------------------------------|
G|-12----12--12----11----11--11----12----12--12--11--------------------------|
D|---------------------------------------------------------------------------|
A|---------------------------------------------------------------------------|
E|---------------------------------------------------------------------------|

   CHORUS
e|---------------------------------------------------------------------------|
B|-12-------------15-15b16-15b16-15b16br15-12------10------------------------|
G|-15b16-15pb16-17----------------------------14-11--------------------------|
D|---------------------------------------------------------------------------|
A|---------------------------------------------------------------------------|
E|---------------------------------------------------------------------------|

e|---------------------------------------------------------------------------|
B|-10b11-10b11br10-8-10b11-10b11-10b11br10-8-10-8-10b11br10-8----------------|
G|------------------------------------------------------------7-5------------|
D|---------------------------------------------------------------------------|
A|---------------------------------------------------------------------------|
E|---------------------------------------------------------------------------|

   REPEAT CHORUS

   VERSE 3
      *same as verse 2

   CHORUS x2

   SOLO
      *will be added eventually

   CHORUS x3

   FINAL CHORUS
e|---------------------------------------------------------------------------|
B|-12-------------15-15b16-15b16-15b16br15-12------10------------------------|
G|-15b16-15pb16-17----------------------------14-11--------------------------|
D|---------------------------------------------------------------------------|
A|---------------------------------------------------------------------------|
E|---------------------------------------------------------------------------|

e|---------------------------------------------------------------------------|
B|-10b11-10b11br10-8-10b11-10b11-10b11br10-8~--------------------------------|
G|---------------------------------------------------------------------------|
D|---------------------------------------------------------------------------|
A|---------------------------------------------------------------------------|
E|---------------------------------------------------------------------------|

  Any comments/improvements/suggestions/ feel free to email. God Bless =D

************************************

| /   slide up
| \   slide down
| h   hammer-on
| p   pull-off
| ~   vibrato
| +   harmonic
| x   Mute note
| b   Bend
| pb  Pre-bend
| br  Bend release
| pbr Pre-bend release
| brb Bend release bend

************************************
Tap to rate this tab
 
# A B C D E F G H I J K L M N O P Q R S T U V W X Y Z