Guitaretab - guitar tabs
Song name
# A B C D E F G H I J K L M N O P Q R S T U V W X Y Z

The Rock - Munajat Cinta chords

         The Rock - Munajat Cinta Solo                                  



   E   E   Q     Q     E   E      Q     Q     E   E   E   E   
------------------------------|------------------------------|
----------12----12------------|--12----12--------------------|
----------12----12------------|--12----12------------12--14--|
------------------------------|--------------12--14----------|
--12--14--------------12--14--|------------------------------|
------------------------------|------------------------------|


   E   E   Q     Q     E   E      Q     Q     E   E   S  S  E    
------------------------------|---------------------------------|
----------12----12------------|--12----12-----------------------|
----------12----12------------|--12----12----12--14--12-14-12~--|
--12--14--------------12--14--|---------------------------------|
------------------------------|---------------------------------|
------------------------------|---------------------------------|


                         PM  PM                                   
   E   E   E   E   Q     E   E      E   E   E   E   Q     E   E   
--------------------------------|--------------------------------|
------------------12------------|------------------12------------|
------------------12------------|------------------12----12--14--|
--12--14----------------12--12--|--12--14------------------------|
----------12--14----------------|----------12--14----------------|
--------------------------------|--------------------------------|


   H.             Q         Q     Q      E   E   E   E   
------------------------|-------------------------------|
------------------------|-------------------------------|
-----------------14b----|---L----14~----12--14--12------|
--13~-------------------|---------------------------14--|
------------------------|-------------------------------|
------------------------|-------------------------------|

[ Tab from: http://www.guitaretab.com/t/the-rock/207406.html ]
   E   E   E   E   Q      Q         E   E   E   E   Q      E   E   
--------------------------------|---------------------------------|
--------------------------------|---------------------------------|
----------12--14--14b----14~----|----------12--14--14b----14--12--|
--12--14------------------------|--12--14-------------------------|
--------------------------------|---------------------------------|
--------------------------------|---------------------------------|


   E   E   E   E   E   Q      E       Q     E   E   E   E   E   E   
----------------------------------|--------------------------------|
------12--13--14--15--------------|--------------------------------|
--14------------------14b----12~--|---L----------------------------|
----------------------------------|--------12--14----------12--14--|
----------------------------------|----------------12--14----------|
----------------------------------|--------------------------------|


   E   E   Q     Q     E   E      Q     Q     E   E   E   E   
------------------------------|------------------------------|
----------12----12------------|--12----12--------------------|
----------12----12----12------|--12----12------------12--14--|
--12--14------------------14--|--------------12--14----------|
------------------------------|------------------------------|
------------------------------|------------------------------|


                      PM                                          
   Q      E   E   E   E   E   E      E   E   E   E   Q     Q      
---------------------------------|-------------------------------|
---------15--17--15--------------|-------------------------------|
--14b----------------15--15--17--|--15--12--12--15--12----12~----|
---------------------------------|-------------------------------|
---------------------------------|-------------------------------|
---------------------------------|-------------------------------|

Related for Munajat Cinta chords
Munajat Cinta chords by The Rock