Guitaretab - guitar tabs
Song name
# A B C D E F G H I J K L M N O P Q R S T U V W X Y Z

The Rocky Fortune - Glass In The Gravel tab

-------------------------------------------------------------------------------
			     GLASS IN THE GRAVEL - The Rocky Fortune
-------------------------------------------------------------------------------
Tabbed by: Jake Redekopp
Email: jascha00 gmail.com

Tuning: standard.

tr = trill, Q = quarter, E = eighth, etc.


Riff A: Play 3 times.

     |--3--|  |--3--|                       |---3--|  |---3--|  |---3--|   
     E  E  E  E  E  E  E.  S E.  S    E.  S E   E  E  E   E  E  E   E  E   
E||--------------------------------|--------------------------------------|
B||-----------1-----3------1-----1-|-------------------------1------------|
G||--------2-----------------2-----|------2-2p--0-----0h--2-----2p--0-----|
D||-----2--------------------------|---------------2-------------------2--|
A||--0-----------------------------|--------------------------------------|
E||--------------------------------|--------------------------------------|

  |--3--|  |--3--|                 |---3--|   |---3--|  |---3--|   |---3--|   
  E  E  E  E  E  E  E.  S E.  S    E   E  E   E  E   E  E   E  E   E  E   E   
--------------------------------|--------------------------------------------|
-----------1-----3------1-----1-|---------0h--1------------------------------|
--------2-----------------2-----|--0h--2---------2p--0---------0h--2---------|
-----2--------------------------|-----------------------0h--2---------2p--0--|
--0-----------------------------|--------------------------------------------|
--------------------------------|--------------------------------------------|

Play twice:

  |--3--|  |--3--|                       |---3--|  |---3--|  |---3--|   
  E  E  E  E  E  E  E.  S E.  S    E.  S E   E  E  E   E  E  E   E  E   
------------------------------3-|--------------------------------------|
-----------1-----3------1-------|-------------------------1------------|
--------2-----------------2-----|------2-2p--0-----0h--2-----2p--0-----|
-----2--------------------------|---------------2-------------------2--|
--0-----------------------------|--------------------------------------|
--------------------------------|--------------------------------------|

 
  |--3--|  |--3--|       |--3--|     |---3--|  |---3--|  |---3--|  |---3--|   
  E  E  E  E  E  E  Q    E  E  E     E   E  E  E   E  E  E   E  E  E   E  E   
-----------0-----3----------------|------------------------------------------|
--------1-------------------------|-------------------1-------------------1--|
-----2-------------------------2--|--2p--0-----0h--2-----2p--0-----0h--2-----|
--3-------------------------------|---------3-------------------3------------|
----------------------------------|------------------------------------------|
----------------------------------|------------------------------------------|

 
  |--3--|  |--3--|                                       
  E  E  E  E  E  E  H           E.  S E.  S E.  S E.  S  
-----------0-----3-----------|--------------------------|
--------1--------------------|------0-9---0-7---0-5---0-|
-----2-----------------------|------0-9---0-7---0-5---0-|
--3--------------------------|--------------------------|
-----------------------------|--------------------------|
-----------------------------|--------------------------|

Verse 1:

This twice:
  Q    Q    E.  S E.  S    E.  S E.  S E.  S E.  S                
------------------------|--------------------------|
------------------------|--------------------------|
--2-------------2-2---2-|------2-2---2-----2-2---2-|
--2-------------2-3---2-|------2-2---2-----2-2---2-|
--0-------------0-0---0-|------0-3---0-----0-----0-|
------------------------|--------------------3-----|

 
Riff B (2 lines):
                         |---3--|  |---3--|  |---3--|        
  Q    Q    Q    Q       E  E   E  E   E  E  E   E  E  Q     
-------5--------------|--5----------------------------------|
------------8---------|-----8p--5---------5--8p--5----------|
-----------------7----|------------5h--7------------7-------|
----------------------|--------------------------------7----|
----------------------|-------------------------------------|
----------------------|-------------------------------------|
 
  Q    Q    Q    Q       Q      E.  S E.  S Q       Q    H         Q     
-------5--------------|--5-----------------------|----------------12----|
------------8---------|--------------------------|----------------13----|
-----------------7----|-------2g0---0-2---2-5----|--2-------------14----|
----------------------|--------------------------|----------------------|
----------------------|--------------------------|----------------------|
----------------------|--------------------------|----------------------|


Riff C:
                                                                    tr
   |---3---|   |---3---|   |-----3-----|    |---3---|   |---3---|   |-------3-------|     
   E   E   E   E   E   E   Q     Q     Q    E   E   E   E   E   E   Q         Q          
--12----------12--------------------------|-12----------12------------------------------|
------13----------13------12--------------|-----13----------13------12(13)--------------|
----------14----------14--------14----12--|---------14----------14------------14----12--|
------------------------------------------|---------------------------------------------|
------------------------------------------|---------------------------------------------|
------------------------------------------|---------------------------------------------|

Play riff B again, then the chorus (play 2x, use the * voicings the first time only):

	Am	   C     G      F         A      C      G*      F*

E||--0------0---|--3------1------|--0------0---|--3------5--|
B||--1------1---|--3------1------|--1------1---|--3------6--|
G||--2------0---|--0------2------|--2------0---|--4------5--|
D||--2------2---|--0------3------|--2------2---|--5------7--|
A||--0------3---|--2------3------|--0------3---|--5------8--|
E||-------------|--3------1------|-------------|--3---------|

[ Tab from: http://www.guitaretab.com/t/the-rocky-fortune/82361.html ]
Interlude:
                                                    tr                         
  |--3--|  |---3--|  |---3--|  |---3--|     |--3--|  |----3---|  |--3--|        
  E  E  E  E   E  E  E   E  E  E   E  E     E  E  E  E     E  E  E  E  E  Q     
--0--------------------------------------|--0----------------------------------|
--1-------------------------1------------|--1-----1--1(3)--1-----1-------------|
--2-----2--2p--0-----0h--2-----2p--0-----|--2-----------------2-----0--0--2----|
--2---------------2-------------------2--|--2----------------------------------|
--0--------------------------------------|--0----------------------------------|
-----------------------------------------|-------------------------------------|

Verse 2: Play riff C, then B, then this:

              |----3----|                                 
  S E.  E.  S Q    Q    Q       E  S S E.  S E  S S Q     
--5-5---5---5-5----5----5----|--5--x-x-5---5-------------|
--5-5---5---5-5----5----5----|--5--x-x-5---5-------------|
--5-5---5---5-5----5----5----|--5--x-x-5---5----x-x------|
--7-7---7---7-7----7----7----|--7--x-x-7---7--------7----|
-----------------------------|---------------------------|
-----------------------------|---------------------------|
 
 
  |--3--|        |--3--|           |----3----|    |--3--|         
  E  E  E  E.  S E  E  E  E.  S    Q    Q    Q    E  E  E  Q      
--5--5--5--5---5-x--x--x--5---5-|-------5----5----5-------------|
--5--5--5--5---5-x--x--x--5---5-|-------5----5----5-------------|
--5--5--5--5---5-x--x--x--5---5-|-------5----5----5--5--5-------|
--7--7--7--7---7-x--x--x--7---7-|-------7----7----7--------7----|
--------------------------------|-------------------------------|
--------------------------------|-------------------------------|

Riff B

Chorus

Bridge (Play the first line twice):

  |--3--|  |--3--|  |--3--|  |--3--|     |--3--|  |---3--|  |---3--|  |---3--|  
  E  E  E  E  E  E  E  E  E  E  E  E     E  E  E  E   E  E  E   E  E  E   E  E   
-----------5-----8--------5--------5--|----------------------------5------------|
--------5--------------------8--------|--------8--8p--5-----5h--8-----8p--5-----|
-----5--------------------------------|------------------7-------------------7--|
--7-----------------------------------|-----------------------------------------|
--------------------------------------|-----------------------------------------|
--------------------------------------|-----------------------------------------|
 

									 tr 
   |--3--|  |---3--|  |--3--|  |--3--|     |----3----|   |---3--|   |---3--|        
   E  E  E  E  E   E  E  E  E  E  E  E     E      E  E   E   E  E   E   E  E  Q     
------------8-----10--------8-----------|--------------------------10p--8----------|
---------8---------------------------8--|--8(10)--8-----10p--8----------------8----|
------9---------------------------------|------------7----------9----------9-------|
--10------------------------------------|------------------------------------------|
----------------------------------------|------------------------------------------|
----------------------------------------|------------------------------------------|
 
                                                                       
  |--3--|       |--3--|        
  E  E  E  Q    E  E  E  Q       H        E.  S Q      
-----------0-------------0----|---------------1------||
--------0-------------1-------|---------------1------||
-----0-------------2----------|---------------2------||
------------------------------|---------------3------||
------------------------------|---------------3------||
--0-------------1-------------|---------------1------||

Verse 3: Riff A 2x, then this:

     |--3--|  |--3--|  |--3--|  |--3--|     |---3--|  |---3--|  |---3--|        
     E  E  E  E  E  E  E  E  E  E  E  E     E   E  E  E   E  E  E   E  E  Q     
E||--------------------------------------|-------------------------------------|
B||-----------1-----3--------1-----------|-------------------------------------|
G||--------0-----------------------------|-------------------0------------0----|
D||-----2-----------------------------2--|--2p--0-----0h--2-----2p--0----------|
A||--3-----------------------------------|---------3-------------------3-------|
E||--------------------------------------|-------------------------------------|
 

Riff D:

  |--3--|  |---3---|  |--3--|  |---3--|     |---3--|  |---3--|  |---3--|  |---3--|   
  E  E  E  E   E   E  E  E  E  E   E  E     E   E  E  E   E  E  E   E  E  E   E  E   
-----------0h--1p--0-----0---------------|------------------------------------------|
--------1-------------3-----3------------|------------------------------------------|
-----2--------------------------------2--|------------------------------------------|
--3----------------------------3p--2-----|--2p--0-----------------------------------|
-----------------------------------------|---------3--5p--3--2--3p--2--0--2p--0-----|
-----------------------------------------|---------------------------------------3--|
 
 
       |--3--|  |--3--|  |--3--|     |--3--|                
  Q    E  E  E  E  E  E  E  E  E     E  E  E  H.            
----------------------------------|--------0---------------|
-------1-----3--------1--------1--|--------1---------------|
----------------------------------|--------2---------------|
----------------------------------|--------2---------------|
--0-------------------------------|--------0---------------|
----------------------------------|------------------------|
 
 
  |--3--|  |--3--|  |--3--|  |--3--|     |--3--|                
  E  E  E  E  E  E  E  E  E  E  E  E     E  E  E  H.            
--------------------------------------|--------0---------------|
-----------1-----3--------1--------1--|--------1---------------|
--------------------------------------|--------2---------------|
--------2-----------------------------|--------2---------------|
--0-----------------------------------|--------0---------------|
--------------------------------------|------------------------|
 
 
  |--3--|  |--3--|  |--3--|  |--3--|     |--3--|                 
  E  E  E  E  E  E  E  E  E  E  E  E     E  E  E  H.             
--------------------------------------|--------0---------------|
-----------1-----3--------1--------1--|--------1---------------|
-----------------------------0--------|--------0---------------|
--------2-----------------------------|--------2---------------|
--3-----------------------------------|--------3---------------|
--------------------------------------|------------------------|

Riff D

Chorus

www.therockyfortune.com
myspace.com/therockyfortune
Related for Glass In The Gravel tab
Advertisement will be closed in 10 seconds