Song name
# A B C D E F G H I J K L M N O P Q R S T U V W X Y Z

The Rocky Fortune - Priceless Vices tab

-------------------------------------------------------------------------------
	      PRICELESS VICES - The Rocky Fortune
-------------------------------------------------------------------------------
Tabbed by: Jake Redekopp
Email: jascha00 gmail.com

When you listen to the song in stereo, there's usually a dominant guitar
in each channel (right or left). Where they're evenly split, I just picked a
side for each part.

Q = quarter, E = eighth, etc.


RIGHT GUITAR:
Verse 1:

      S  E.  Q     E   E  E.   S    S  S   E  Q.      E  Q     
E||--12-12--------10--12------15-|----12--12---------17-------|
B||--13-13--------12--13------13-|----12h-13---------17-------|
G||--14-14--------12--14------14-|----14--14---------17-------|
D||------------------------------|----------------------------|
A||------------------------------|----------------------------|
E||------------------------------|----------------------------|
 
 
   S  E.  Q     E   E  E.   S    S  S   E  Q.      E  Q     
--12-12--------10--12------15-|----12--12---------12-------|
--13-13--------12--13------13-|----12h-13---------13-------|
--14-14--------12--14------14-|----14--14---------14-------|
------------------------------|----------------------------|
------------------------------|----------------------------|
------------------------------|----------------------------|
 
 
   S  E.  Q     E   E  E.   S    S  S  E  Q.      E  Q     
--12-12--------10--12------12-|----12-12---------12-------|
--13-13--------12--13------13-|----12-13---------13-------|
--14-14--------12--14------14-|----14-14---------14-------|
------------------------------|---------------------------|
------------------------------|---------------------------|
------------------------------|---------------------------|

   S  E.  Q     E   E  E.   S    Q    Q    Q    Q     
--12-12--------10--12------12-|----------------------|
--13-13--------12--13------13-|----------------------|
--14-14--------12--14------14-|----------------------|
------------------------------|----------------------|
------------------------------|----------------------|
------------------------------|----------------------|

Chorus (4x):

  Q    Q    Q    Q       Q    E   E   E   E   E  E   
----------------------|-----------8---8---8---8-----|
----------------------|----------10--10--10--10-----|
----------------------|-----------9---9---9---9-----|
----------------------|-----------------------------|
----------------------|-----------------------------|
----------------------|-----------------------------|

Verse 2:

     S  S  S  S E   S   S   E  E   S  S  E     E   E  E  S S S S S S  S  S   S S     
|---17-------17----------------------10-----|---------0----3-----8---12----/15-----|
|------17----------12h-13p--------------12\-|------------1-----5---8----12-/15-----|
|---------17---------------14-----12--------|--------------------------------------|
|-------------------------------------------|--------------------------------------|
|-------------------------------------------|--------------------------------------|
|-------------------------------------------|--------------------------------------|

Chorus

Bridge A and verse 3 are almost identical to verse 1.

Bridge B:

        |-3-|       |-3-|                |-3-|       |-3-|       
  E  E  S S S E  E  S S S E  E     E  E  S S S E  E  S S S Q     
-----5--------------------------|-----5-------------------------|
--------5-6-5----5--------5-----|--------5-6-5----5-------------|
--------------7-----5-7-5-------|--------------7-----5-7-5------|
-----------------------------7--|--------------------------7----|
--------------------------------|-------------------------------|
--------------------------------|-------------------------------|
 
 
        |-3-|       |-3-|                |-3-|                 
  E  E  S S S E  E  S S S E  E     E  E  S S S E  E  E   Q     
-----5--------------------------|-----5-----------------------|
--------5-6-5----5--------5-----|--------5-6-5----8--8b9------|
--------------7-----5-7-5-------|--------------7--7--7b8------|
-----------------------------7--|-----------------------------|
--------------------------------|-----------------------------|
--------------------------------|-----------------------------|

Chorus 2x

End (First line 4x, then second line 4x):

               |--3--|                                                  
  E  E  E  S S S  S  S  S S S S S S    E  E  S  S S S S S S S S S S S   
--------------------------------1-1-|-------------------------5-5-5-5-||
------------------------------x-1-1-|---------------------5---5-5-5-5-||
------------------------------x-2-2-|-----5--4h-5---5-5-------5-5-5-5-||
--------2---------------------x-3-3-|---------------------------------||
-----0--0----0-2h-3p-2p-0-0---x-3-3-|---------------------------------||
--------------------------------1-1-|---------------------------------||

               |--3--|                
  E  E  E  S S S  S  S  S S S S S S   
--------------------------------0-0-||
------------------------------x-1-1-||
------------------------------x-2-2-||
--------2---------------------x-2-2-||
-----0--0----0-2h-3p-2p-0-0---x-0-0-||
------------------------------------||


LEFT GUITAR:
Intro (2x):

     Q    Q    Q    S E.     Q.     E  Q    S S S S  
E||-------8---------5-5---|---------5-------5-5-5-5-|
B||-------5---------8-8---|---------5-------5-5-5-5-|
G||-------5---------5-5---|---------7-------7-5-7-5-|
D||-----------------------|-------------------------|
A||-----------------------|-------------------------|
E||-----------------------|-------------------------|

Verse 1 (Same rhythm as the intro, but use the chord in bar 1.
The chord in bar 2 is played 5x at the end of the verse):

  W                   W                 
--5----------------|--5----------------|
--5----------------|--5----------------|
--5----------------|--7----------------|
-------------------|-------------------|
-------------------|-------------------|
-------------------|-------------------|

Chorus (4x):

  Am       Em          C        D9         
--0--------0--------|--0--------0--------|
--1--------0--------|--1--------3--------|
--2--------0--------|--0--------5--------|
--2--------2--------|--2--------4--------|
--0--------2--------|--3--------5--------|
-----------0--------|--------------------|

Verse 2 (3 times, ending same as Verse 1):

  S  S  S S  S  S S  S  S S  S S Q       W                 
--5h-8p-5-----------------------------|-------------------|
----------5h-8p-5---------------------|-------------------|
------------------5h-7p-5-------------|-------------------|
--------------------------5h-7--------|-------------------|
--------------------------------------|-------------------|
--------------------------------------|-------------------|

Chorus

Bridge A is the intro twice.

Verse 3 is the same as Verse 1.

Chorus 3x

End (First line 4x, then second line 4x):

               |--3--|                                                 
  E  E  E  S S S  S  S  S S S S S S    E  E  S  S S S S S S S S S S S  
--------------------------------1-1-|---------------------0---0-0-0-0-|
------------------------------x-1-1-|-----------------1-------1-1-1-1-|
------------------------------x-2-2-|-----2--0h-2---2---------2-2-2-2-|
--------2---------------------x-3-3-|---------------------------------|
-----0--0----0-2h-3p-2p-0-0---x-3-3-|---------------------------------|
--------------------------------1-1-|---------------------------------|

               |--3--|                
  E  E  E  S S S  S  S  S S S S S S   
--------------------------------0-0-||
------------------------------x-1-1-||
------------------------------x-2-2-||
--------2---------------------x-2-2-||
-----0--0----0-2h-3p-2p-0-0---x-0-0-||
------------------------------------||
Tap to rate this tab
# A B C D E F G H I J K L M N O P Q R S T U V W X Y Z