Song name
# A B C D E F G H I J K L M N O P Q R S T U V W X Y Z

The Rocky Fortune - Drop Me In The Well tab

Help us improve GuitareTab! Take a short survey!
-------------------------------------------------------------------------------
          DROP ME IN THE WELL - The Rocky Fortune
-------------------------------------------------------------------------------
Tabbed by: Jake Redekopp
Email: jascha00 gmail.com

RHTHYM GUITAR:
Intro:

     Em              C                  G                                
     E  E  S  S S  S E  E  S  S S  S    E  E  S  S E  S  S E  S  S S  S  
E||--0--0------------0--0------------|--3--3----------------------------|
B||--0--0------------1--1------------|--3--3----------------------------|
G||--0--0--0h-2-2p-0-0--0------------|--0--0------------------0h-2-2p-0-|
D||--2--2------------2--2--0h-2-2p-0-|--0--0----------0h-2--------------|
A||--2--2------------3--3------------|--2--2--0h-2----------------------|
E||--0--0----------------------------|--3--3----------------------------|
 
 
  Em              C                  Bm                             
  E  E  S  S S  S E  E  S  S S  S    E  E  S  S E  S  S E  S  S E   
--0--0------------0--0------------|--2--2--------------------------|
--0--0------------1--1------------|--3--3--------------------------|
--0--0--0h-2-2p-0-0--0------------|--4--4--4p-2-----------------0--|
--2--2------------2--2--0h-2-2p-0-|--4--4----------4p-2------------|
--2--2------------3--3------------|--2--2------------------2p-0----|
--0--0----------------------------|--------------------------------|
 
 
  Em              C                  G                                
  E  E  S  S S  S E  E  S  S S  S    E  E  S  S E  S  S E  S  S S  S  
--0--0------------0--0------------|--3--3----------------------------|
--0--0------------1--1------------|--3--3----------------------------|
--0--0--0h-2-2p-0-0--0------------|--0--0------------------0h-2-2p-0-|
--2--2------------2--2--0h-2-2p-0-|--0--0----------0h-2--------------|
--2--2------------3--3------------|--2--2--0h-2----------------------|
--0--0----------------------------|--3--3----------------------------|
 
 
  E  E  S  S S S E  E  S  S S S    E  Q.     E  E  E  E   
--1--1-----------0--0-----------|-----2------------------|
--1--1-----------1--1-----------|-----3------------------|
--2--2--2p-0-----0--0-----------|-----4------------------|
--3--3-------0-0-2--2--2p-0-----|-----4------------------|
-----------------3--3-------0-0-|--2--2------2--0--------|
--------------------------------|------------------3--2--|


Verse:

  E  E  E  E  E  E  E  E     E  E  E  E  E  E  E  E   
-----0-----0-----0-----0--|-----0-----0-----0-----0--|
-----0-----0-----0-----0--|-----1-----1-----1-----1--|
-----0-----0-----0-----0--|-----0-----0-----0-----0--|
-----2-----2-----2-----2--|-----2-----2-----2-----2--|
-----2--2--2-----2--2--2--|--3--3-----3--3--3-----3--|
--0-----------0-----------|--------3-----------3-----|
 
 
  E  E  E  E  E  E  E  E     E  E  E  E  E  E  E  E   
-----0-----0-----0-----0--|-----0-----0-----0--------|
-----0-----0-----0-----0--|-----1-----1-----1--------|
-----0-----0-----0-----0--|-----0-----0-----0--------|
-----2-----2-----2-----2--|-----2-----2-----2--------|
-----2--2--2-----2--2--2--|--3--3-----3--3--3--------|
--0-----------0-----------|--------3-----------3--2--|
 
 
  E  E  E  E  E  E  E  E     E  E  E  E  E  E  E  E   
-----0-----0-----0-----0--|-----0-----0-----0-----0--|
-----0-----0-----0-----0--|-----1-----1-----1-----1--|
-----0-----0-----0-----0--|-----0-----0-----0-----0--|
-----2-----2-----2-----2--|-----2-----2-----2-----2--|
-----2--2--2-----2--2--2--|--3--3-----3--3--3-----3--|
--0-----------0-----------|--------3-----------3-----|
 
 
                                         |-3-|   |-3-|        
  E  E  E  E  E  E  E  E     E  E  E  E  S S S S S S S S S S  
-----0-----0-----0-----0--|-----0-----0----------------------|
-----0-----0-----0-----0--|-----1-----1----------------------|
-----0-----0-----0-----0--|-----0-----0----------------------|
-----2-----2-----2-----2--|-----2-----2----------------------|
-----2--2--2-----2--2--2--|--3--3-----3--2-3-2---2-3-2---0-2-|
--0-----------0-----------|--------3-----------3-------3-----|

Chorus:

     D              C                                          C          
                                   E  Q    S S E  E  E  S S                      
E||--2-----------|--0-----------|-----2----2-2-3--2--0--0-0-|--0---|
B||--3-----------|--1-----------|-----3----3-3-3--3--3--3-3-|--1---|
G||--2-----------|--0-----------|-----2----2-2-2--2--2--2-2-|--0---|
D||--0-----------|--2-----------|--0--0----0-0-0--0--0--0-0-|--2---|
A||--------------|--3-----------|---------------------------|--3---|
E||--------------|--------------|---------------------------|------|

Verse 2

Chorus

Solo (Same strumming pattern as the verses):

     Em       C           G              F        C           Bm                 
                  
E||--0--------0--------|--3-----------|--1--------0--------|--2---|
B||--0--------1--------|--3-----------|--1--------1--------|--3---|
G||--0--------0--------|--0-----------|--2--------0--------|--4---|
D||--2--------2--------|--0-----------|--3--------2--------|--4---|
A||--2--------3--------|--2-----------|--3--------3--------|--2---|
E||--0--------3--------|--3-----------|--1--------3--------|--2---|

Verse 3

Last Chorus:

   D        Em    C       Em                                 C       Em      
   H.       Q     H.      Q      E  Q    S S E  E  E  S S    H.      Q                 
|--2--------0--|--0-------0---|-----2----2-2-3--2--0--0-0-|--0-------0--|
|--3--------0--|--1-------0---|-----3----3-3-3--3--3--3-3-|--1-------0--|
|--2--------0--|--0-------0---|-----2----2-2-2--2--2--2-2-|--0-------0--|
|--0--------2--|--2-------2---|--0--0----0-0-0--0--0--0-0-|--2-------2--|
|-----------2--|--3-------2---|---------------------------|--3-------2--|
|-----------0--|----------0---|---------------------------|----------0--|

End (Play this chord on 2 and 4):

E||--12----||
B||--12----||
G||--12----||
D||--------||
A||--------||
E||--------||
 

LEAD GUITAR:
Intro:

     E  S  S S  S Q.     Q       W         H.  S S S S    H        E  E  E  E   
E||---------------------------|----------|-------------|-----------------------|
B||---------------------------|----------|-------------|-----------------------|
G||---------------0-----------|----------|---------2-4-|-----------------------|
D||----------0h-2-------------|----------|-------2-----|-----------------------|
A||-----0h-2------------------|----------|-------------|-----------2--0--------|
E||--0------------------------|--3-------|-------------|-----------------3--2--|
 
Verse: Same as rhythm guitar.

Chorus:

     Q    E.  S S S S S S E  S    S E.  E.  S  S E  T  T S S S  S  
|----------------------------|----------------------------------|
|----------------------------|----------------------------------|
|-------------4-4-4---4-2----|--2-0------------0-------0---0h-2-|
|-----------0-------0------0-|------------0h-2----0h-2---2------|
|----------------------------|----------------------------------|
|----------------------------|----------------------------------|
 
 
  H         E  S  S S S S S    E  Q.     Q    Q      
----------------------------|----------------------|
--------------------3-------|------------5----3----|
--2--------/4--2h-4---4-2-4-|-----0------5----4----|
----------------------------|----------------------|
----------------------------|----------------------|
----------------------------|----------------------|

Verse 2

Chorus

Solo:

   E   S   S  S   S  S  E  S  S E  S  S S    E  S  S S  S S E  S S E  S S S  
|-----10h-12-10h-12-12-10----10-----------|----------------------3------3---|
|--------------------------8----8--8-12-8-|-----5p-3-5p-3------3---3--3---3-|
|-----11h-12-11h-12-----------------------|-----5p-4-5p-4---4---------------|
|-----------------------------------------|---------------------------------|
|-----------------------------------------|---------------------------------|
|-----------------------------------------|---------------------------------|
 
 
  E    E  S S S E  S S S S S S S    S S S S S S S S S S S S S S S S  
---------------------------------|------5---5---5---5---5---5---5-5-|
---------------------5---3-----7-|----7---7---7---7---7---7---7-----|
-----0h2--2-2---5--5---5---4-0---|----------------------------------|
---------------------------------|----------------------------------|
---------------------------------|----------------------------------|
---------------------------------|----------------------------------|
 
 
  E   S   S  S   S  S  E  S  S E  S  S S    E  S  S S  S S E  S S E  S S S  
-----10h-12-10h-12-12-10----10-----------|----------------------3------3---|
--------------------------8----8--8-12-8-|-----5p-3-5p-3------3---3--3---3-|
-----11h-12-11h-12-----------------------|-----5p-4-5p-4---4---------------|
-----------------------------------------|---------------------------------|
-----------------------------------------|---------------------------------|
-----------------------------------------|---------------------------------|
 
 
  E    E  S S S E  S S S S S E     S T T S S T  T  T  T S S S S S T  T S S S S  
--------------------------------|----------------------------------------------|-----|
---------------------5---3------|----------------------------------------------|-----|
-----0h2--2-2---5--5---5---4-0--|----------------------------------------------|-----|
--------------------------------|--2h3p2p0-2-2h-3p-2p-0---0--------------------|-----|
--------------------------------|-----------------------3---3-2-2-3p-2---0-2---|-----|
--------------------------------|--------------------------------------3-----3-|--0--|
 
Verse 3
 
Chorus (Same riffs as before, listen to know when to play them)

End (First line 2x, then then let the last chord ring):

     Q    H        E  E     S  S S S Q    H         
E||-------7--------------|-------------------------|
B||-------8--------------|---------8---------------|
G||-------9--------------|-------9-9---------------|
D||-------------------7--|--7s-9-------------------|
A||-------------------5--|--5s-7-------------------|
E||--0-------------------|-------------------------|
 
 
  W                  
--7----------------||
--8----------------||
--9----------------||
--9----------------||
--7----------------||
--0----------------||


Related for Drop Me In The Well tab