Song name
# A B C D E F G H I J K L M N O P Q R S T U V W X Y Z

The Rocky Fortune - Scripts And Stories tab

-----------------------------------------------------------------------------
	          SCRIPTS AND STORIES - The Rocky Fortune
-----------------------------------------------------------------------------
Tabbed by: Jake Redekopp
Email: jascha00 gmail.com

RHYTHM GUITAR:
Intro:
     Em     G          D  Dsus C                      Em     G  
     Q.     E  H       E  Q    Q    S  S S  S S  S    Q.     E  H         
E||---------3-------|--2--3----0-------------------|---------3------|
B||---------3-------|--3--3----1-------------------|---------3------|
G||*-0------0-------|--2--2----0-------------------|--0------0------|
D||*-2------0-------|--0--0----2----2p-0-2p-0------|--2------0------|
A||--2------2-------|----------3--------------2p-0-|--2------2------|
E||--0------3-------|------------------------------|--0------3------|
 
     D  Dsus C             Em     G         D  Dsus C 
  E  E  Q    Q    E  E     Q.     E  H      E  Q    Q    S  S S  S S  S  
-----2--2----0----------|--0------3------|--2--3----0-------------------|
-----3--3----1----------|--0------3------|--3--3----1-------------------|
-----2--2----0----------|--0------0------|--2--2----0-------------------|
-----0--0----2----------|--2------0------|--0--0----2----2p-0-2p-0------|
-------------3----3--2--|--2------2------|----------3--------------2p-0-|
------------------------|--0------3------|------------------------------|
 

 		 1st Ending	         2nd Ending
  Em     G         A    B    E            Am   G    D    G       Em
  Q.     E  H      Q    Q    H            Q    Q    Q    Q      
---------3------|---------------------||--0----3----2----3----|-----|
---------3------|---------------------||--1----3----3----3----|-----|
--0------0------|--2----4------------*||--2----0----2----0----|-----|
--2------0------|--2----4----2-------*||--2----0----0----0----|--2--|
--2------2------|--0----2----2--------||--0----2---------2----|--2--|
--0------3------|------------0--------||-------3---------3----|--0--|


Verse:

Alternate between Em and C, then play this in the last 2 bars:
 
     E  E  E  E  E  E  E  E     E  E  E  E  E  E  E  E    
E||--------------------------|--------------------------||
B||--------------------------|--------------------------||
G||--2--2--2--2--2--2--2--2--|--2--2--2--2--2--2--2-----||
D||--2--2--2--2--2--2--2--2--|--2--2--2--2--2--2--2-----||
A||--0--0--0--0--0--0--0--0--|--0--0--0--0--0--0--0-----||
E||--------------------------|--------------------------||
 

Chorus: Play the intro with the 2nd ending

Verse 2

Chorus

Bridge (This 2x, then the intro w/ the verse ending):

   Let ring    Play 3 times
               |----3----|                 |----3----|    |----3----|      
     W         Q    Q    Q    Q    Q       Q    Q    Q    Q    Q    Q      
E||---------|---------------------------|--------------------------------||
B||---------|--1----1----1----1---------|--1----1----1----1----1----1----||
G||--0------|--0----0----0----0---------|--0----0----0----0----0----0----||
D||--2------|--2----2----2----2---------|--2----2----2----2----2----2----||
A||--2------|--3----3----3----3---------|--3----3----3----3----3----3----||
E||--0------|---------------------------|--------------------------------||
 
Chorus (2x)

End:
     Am        D       Am   G    D    G       Em    E
     W         W       Q    Q    Q    Q      
E||--0----|----2----|--0----3----2----3----|--0--|-----|
B||--1----|----3----|--1----3----3----3----|--0--|-----|
G||--2----|----2----|--2----0----2----0----|--0--|--9\-|
D||--2----|----0----|--2----0----0----0----|--2--|--9\-|
A||--0----|---------|--0----2---------2----|--2--|--7\-|
E||-------|---------|-------3---------3----|--0--|-----|
 

LEAD GUITAR:
Intro:

     Q.     E  H      E  Q    Q    S  S S  S S  S    Q.  E  H         
E||---------3------|--2--3----0-------------------|---------3------|
B||---------3------|--3--3----1-------------------|---------3------|
G||--0------0------|--2--2----0----2p-0-4p-0------|--0------0------|
D||--2------0------|--0--0----2--------------2p-0-|--2------0------|
A||--2------2------|----------3-------------------|--2------2------|
E||--0------3------|------------------------------|--0------3------|
 
 
  S  S S  S S  S S  S Q    S  S E     Q.     E  H         
-----------------------------------|---------3-----------|
-----------------------------------|---------3-----------|
--2p-0-----------------------------|--0------0-----------|
-------2p-0-5p-2-------------------|--2------0-----------|
-----------------0h-2-0----0h-2----|--2------2-----------|
--------------------------------3--|--0------3-----------|
 
 
                                                       Am   G    D    G     
  E  Q    Q    S  S S  S S  S    Q.     E  H           Q    Q    Q    Q     
--2--3----0-------------------|---------3-----------|--0----3----2----3----|
--3--3----1-------------------|---------3-----------|--1----3----3----3----|
--2--2----0----2p-0-4p-0------|--0------0-----------|--2----0----2----0----|
--0--0----2--------------2p-0-|--2------0-----------|--2----0----0----0----|
----------3-------------------|--2------2-----------|--0----2---------2----|
------------------------------|--0------3-----------|-------3---------3----|
 
Verse (Repeat several times):

  Q    E   E   E  E  E  E     E  E  E  E  E  E  E  E   
---------------------------|--------------------------|
-------8--10--10--7--7--8--|--8--8--8--8--8--8--8--7--|
-------7---7---7--7--7--7--|--7--9--9--7--9--7--9--7--|
---------------------------|--------------------------|
---------------------------|--------------------------|
---------------------------|--------------------------|
 
 
  E  E  E   E   E  E  E  E     E  E  E  E  E  E  E  E   
----------------------------|--------------------------|
--7--8--8--10--10--7--7--8--|--8--8--8--8--8--8--8--7--|
--7--7--7---7---7--7--7--7--|--7--9--9--7--9--7--9--7--|
----------------------------|--------------------------|
----------------------------|--------------------------|
----------------------------|--------------------------|
 
Chorus (One small difference from the intro):

  S  S S  S S  S S  S E.   E  S E     Q.     E  H         
-----------------------------------|---------3-----------|
-----------------------------------|---------3-----------|
--2p-0-----------------------------|--0------0-----------|
-------2p-0-5p-2------0----0-------|--2------0-----------|
-----------------0h-2---------0----|--2------2-----------|
--------------------------------3--|--0------3-----------|

Verse 2

Chorus

Bridge:

Part A:
  E  S  S E  S  S E  S  S E  S  S    E  S  S E  S  S E  S  S E  S  S  
----------------------------------|----------------------------------|
----------------------------------|----------------------------------|
--7-------7-------7-------7-------|--7-------7-------7-------7-------|
-----7h-9----7h-9----7h-9----7h-9-|-----7h-9----7h-9----7h-9----7h-9-|
----------------------------------|----------------------------------|
----------------------------------|----------------------------------|

Repeat A

Part B:

              |---3--|                         |---3--|           
  E  E  E  E  S   S  S E  E  E     E  E  E  E  S   S  S E  E  E   
--------------------------------|--------------------------------|
--------------------------------|--------------------------------|
--9-----9-----9h-12p-9----9-----|--9-----9-----9h-12p-9----9-----|
-----9-----9-----------9-----9--|-----9-----9-----------9-----9--|
--------------------------------|--------------------------------|
--------------------------------|--------------------------------|

Part A

Part B

Part B*:

              |---3--|                              |---3---|        
  E  E  E  E  S   S  S E  E  E     E  E  E  E   E   S   S   S E  E   
--------------------------------|-----------------------------------|
--------------------------------|-----------------------------------|
--9-----9-----9h-12p-9----9-----|--9-----9-----12--11h-12p-11-9--7--|
-----9-----9-----------9-----9--|-----9-----9-----------------------|
--------------------------------|-----------------------------------|
--------------------------------|-----------------------------------|
 

Part C (2 lines):

  |----3----|    |----3----|       |----3----|    |----3----|     
  Q    Q    Q    Q    Q    Q       Q    Q    Q    Q    Q    Q     
--------------------------------|--------------------------------|
--------------------------------|-----------------8----8----8----|
--7----7----7----9----9----9----|--7----7----7----9----9----9----|
--------------------------------|--------------------------------|
--------------------------------|--------------------------------|
--------------------------------|--------------------------------|
 
 
  |----3----|    |----3----|                                        
  Q    Q    Q    Q    Q    Q       E  S  S E  S  S E  S  S E  S  S  
-----------------7----7----7----|----------------------------------|
-----------------8----8----8----|----------------------------------|
--7----7----7----9----9----9----|--7-------7-------7-------7-------|
--------------------------------|-----7h-9----7h-9----7h-9----7h-9-|
--------------------------------|----------------------------------|
--------------------------------|----------------------------------|

Part A

Part B

Part C

Alternate playing A and this:
                                                             |--3--|        
  E  S  S E  S  S E  S  S E  S  S    E  S  S E  S  S E  S  S S  S  S S  S   
----------------------------------|---------------------------------------||
----------------------------------|---------------------------------------||
--7-------7-------7-------7-------|--7-------7-------7-------7h-9p-7------||
-----7h-9----7h-9----7h-9----7h-9-|-----7h-9----7h-9----7h-9---------7h-9-||
----------------------------------|---------------------------------------||
----------------------------------|---------------------------------------||

Chorus (2x)

End: Same as rhythm.

Tap to rate this tab
# A B C D E F G H I J K L M N O P Q R S T U V W X Y Z