Song name
# A B C D E F G H I J K L M N O P Q R S T U V W X Y Z

The Rocky Fortune - Merry Boxing Day tab

-----------------------------------------------------------------------------
	          MERRY BOXING DAY - The Rocky Fortune
-----------------------------------------------------------------------------
Tabbed by: Jake Redekopp
Email: jascha00 gmail.com

Acoustic guitar plays this all the way through:
     D
     E  E  E  E  E  E  E  E     E  E  E  E  E  E  E  E   
E||-----2-----2-----2-----2--|-----2-----2-----2-----2--|
B||-----3-----3-----3-----3--|-----3-----3-----3-----3--|
G||-----2-----2-----2-----2--|-----2-----2-----2-----2--|
D||--0-----------0-----------|--0-----------0-----------|
A||--------0-----------0-----|--------0-----------0-----|
E||--------------------------|--------------------------|
 
  G                                A
  T  S. E  E  E  T  S. E  E  E     T  S. E  E  E  E  E  E  E   
--------3-----3--------3-----3--|--------0-----0-----0-----0--|
--------3-----3--------3-----3--|--------2-----2-----2-----2--|
--------0-----0--------0-----0--|--------2-----2-----2-----2--|
-----------0--------------0-----|--0h-2-----------2-----4-----|
--0h-2-----------0h-2-----------|-----------0-----------------|
--------------------------------|-----------------------------|
 
Except for right after the chorus: 
  D                          G
  E  E  E  E  E  E  E  E     E  E  E  E  E  E  E  E   
-----2-----2-----2-----2--|-----3-----3-----3-----3--|
-----3-----3-----3-----3--|-----3-----3-----3-----3--|
-----2-----2-----2-----2--|-----0-----0-----0-----0--|
--0-----------0-----0-----|--0-----------0-----0-----|
--------0-----------------|--------2-----------------|
--------------------------|--------------------------|
 
  D                          G
  E  E  E  E  E  E  E  E     S  S E  E  E  S  S E  E  E    
-----2-----2-----2-----2--|-------3-----3-------3-----3--||
-----3-----3-----3-----3--|-------3-----3-------3-----3--||
-----2-----2-----2-----2--|-------0-----0-------0-----0--||
--0-----------0-----0-----|------------------------------||
--------0-----------------|----------------0h-2----0-----||
--------------------------|--0h-2----0-------------------||
 

The electric guitar plays this during the chorus:
  D                   B        A
  W                   H        H          
-------------------|--------------------||
-------------------|--------------------||
--7----------------|--4--------2--------||
--7----------------|--4--------2--------||
--5----------------|--2--------0--------||
-------------------|--------------------||
Tap to rate this tab
# A B C D E F G H I J K L M N O P Q R S T U V W X Y Z