Song name
# A B C D E F G H I J K L M N O P Q R S T U V W X Y Z

The Rocky Fortune - Pack A Day tab

-----------------------------------------------------------------------------
	              PACK A DAY - The Rocky Fortune
-----------------------------------------------------------------------------
Tabbed by: Jake Redekopp
Email: jascha00 gmail.com


RHYTHM GUITAR:
Intro:

     E   E  Q    E   E  Q       Q    E  E  E  E  E  E
E||--------------------------|-------------------------|
B||--------------------------|-------------------------|
G||--------------------------|-------2-----------2-----|
D||--0h--2--4----0h--2--4----|--4----4--4-----4--4--4--|
A||--0h--2--2----0h--2--2----|--2-------2-----2-----2--|
E||--------------------------|-------------------------|


                          PM              PM PM
  Q    E  E  Q    Q       E  E  E   E     E  E  E  S  S Q    Q
-----------------------|--this bar in--|--------------------------|
-----------------------|---2/4 time----|--------------------------|
-------2---------------|---------------|----------------7---------|
--4----4--6--7----7----|--7--7--7/--9--|--9--9--9-------9----5----|
--2-------4--5----5----|--5--5--5/--7--|--7--7--7--7h-9------7----|
-----------------------|---------------|--------------------------|

Verse (with palm muting, 4x):

      E  E  E  E  Q    E  E     E  E  E  E  Q    Q       E  E  Q    E  E  E   E
E||--------------------------|------------------------|--------------------------|
B||--------------------------|------------------------|--------------------------|
G||*--------2----------2-----|--------2--2--2---------|--------------------------|
D||*--4--4--4--4--4----4--4--|-----4--4--4--4----4----|--------7----------7/--9--|
A||---2--2-----2--2-------2--|-----2--------2----2----|--5--5--5----5--5--5/--7--|
E||--------------------------|------------------------|--------------------------|

____________________________  ___________________________  _________________________
1st + 3rd                   || 2nd                       || 4th                      |
  E  E  E  S  S Q    Q      ||  E  E  E  E  E   Q.       ||  E  E  E  E  E  E  E  E  |
----------------------------||---------------------------||--------------------------|
----------------------------||---------------------------||--------------------------|
----------------7---------*-||-------------------------*-||--------------------------|
----------------9----5----*-||--9--9--9--9-------------*-||--9--9--9-----7--7-----4--|
--7--7--7--7h-9------7------||--7--7--7--7---------------||--7--7--7-----7--7-----4--|
----------------------------||--------------2/--5--------||--------------5--5-----2--|

Interlude (Big pick slide, then this 2x):

  Q.     E  E  E  E  E     E  E  E  Q.     Q       E  E  E  E  H
------------------------|-----------------------|-----------------------|
------------------------|-----------------------|-----------------------|
------------------------|-----------------------|-----------------------|
--4------2--4--4-----4--|-----4-----2-----------|--2--2-----2--L--------|
--4------2--4--4-----4--|-----4-----2-----------|--2--2-----2--L--------|
--2------0--2--2-----2--|-----2-----0-----------|--0--0-----0--L--------|
_______________________ _____________________________________________________
1st time               | 2nd time                                            |
  E  E  E  E  H        |  E  E  E  E  E  E  E  E     E  E  E  E  E  E  E  E  |
-----------------------|--------------------------|--------------------------|
-----------------------|--------------------------|--------------------------|
-----------------------|--------------------------|--------------------------|
--4--4-----4--L--------|--9--7-----9--7-----9--7--|-----9--7-----7--7-----4--|
--2--2-----2--L--------|--9--7-----9--7-----9--7--|-----9--7-----7--7-----4--|
-----------------------|--7--5-----7--5-----7--5--|-----7--5-----5--5-----2--|

Chorus 1 (2x):

  H.           E  E     E   E  H.              W        W
---------------------|----------------------|------|----3--------|
---------------------|----------------------|------|----3--------|
---------------------|----------------------|--5---|----4--------|
--7---------------5--|--Ls--7--7------------|--5---|----5--------|
--7---------------5--|--Ls--7--7------------|--3---|----5--------|
--5---------------3--|--Ls--5--5------------|------|----3--------|


Verse 2

Chorus 2 (4x):

   W                    H        E  E  E  E
--------------------|------------------------|
--------------------|------------------------|
--11----------------|--11--------14-14----7--|--hold for 2 bars--
--11----------------|--11--------14-14----7--|
---9----------------|---9--------12-12----5--|
--------------------|------------------------|

Last bar of the chorus:

  E  E  E  H         E
------------------------|
------------------------|
------------------------|
--7--7-----4s--------9--|
--7--7-----4s--------9--|
--5--5-----2s--------7--|

Bridge (This 2x, then repeat the interlude):

  Q.     E  E  Q.
----------------------|
----------------------|
---------------7------|
--9------7--9--9------|
--9------7--9--9------|
--7------5--7--7------|

Chorus 2

Repeat these chords until the end:

  H        H
-----------0--------||
-----------0--------||
-----------0--------||
--9--------5--------||
--9--------5--------||
--7--------3--------||

****************************************************
LEAD GUITAR:
Intro (2x):

     E   E  Q    E   E  Q
E||--------------------------|
B||--------------------------|
G||--------------------------|
D||--7s--9--9----7s--9--9----|
A||--7s--9--9----7s--9--9----|
E||--5s--7--7----5s--7--7----|

Verse (4x):

      H.      E  E     E  E  H.       W                   W
E||-----------------|--------------|-----------|----------|
B||-----------------|--------------|-----------|----------|
G||-----------------|--------------|--7--------|--9-------|
D||--9----------7s--|--L--9--L-----|--7--------|--9-------|
A||--9----------7s--|--L--9--L-----|--5--------|--7-------|
E||--7----------5s--|--L--7--L-----|-----------|----------|

Interlude:

       Q.     E    E   E  E   E     E   E  E   Q.     S   S  S E     E  E  E  Q.     Q
E||------------------------------|--------------------------------|-----------------------|
B||--------------------------10--|-------------9------------------|-----------7-----------|
G||*--11------9s--11--11-----11--|-----11-----11------------------|--9--9-----9-----------|
D||*--11------9s--11--11-----11--|-----11-----11------9h-11p-9-9--|--9--9-----9-----------|
A||----9------7s---9---9------9--|------9------9------------------|--7--7-----7-----------|
E||------------------------------|--------------------------------|-----------------------|
__________________________  ________________________________________________________________
1st, 2nd time             || 3rd time                                                    
  ||
  E  E  E   Q.     Q      ||   E   E  E   E   E  E   E   E     E   E   E  E   E   E  E   
 ||
--------------------------||--------------------------------|-------------------------------||
-----------10-------------||--10--10-----10--10-----10--10--|-----10--10-----10--10---------||
--9--9------9-----------*-||--11--11-----11--11-----11--11--|-----11--11-----11--11-----11--||
--9--9------9-----------*-||--11--11-----11--11-----11--11--|-----11--11-----11--11-----11--||
--7--7------7-------------||---9---9------9---9------9---9--|------9---9------9---9------9--||
--------------------------||--------------------------------|-------------------------------||

Chorus 1 (The rhythm here isn't quite right):

      |--3-|   |---3--|  |---3--|   3  3     |--3-|   |---3--|  |---3--|   3  3
      Q    E   E  E   E  E   E  E   E  E     Q    E   E  E   E  E   E  E   E  E
E||---------------------------------------|--------------------------------------|
B||---1--------------------------------1--|--L--------------------------------1--|
G||*-------2p--0--2p--0--2p--0--2p--0-----|-------2p--0--2p--0--2p--0--2p--0-----|
D||*--------------------------------------|--------------------------------------|
A||---------------------------------------|--------------------------------------|
E||---------------------------------------|--------------------------------------|
                                       ________________________________________
                                       1st time                                ||
  |--3-|   |---3--|  |---3--|   3  3     |--3-|   |---3--|  |---3--|   3  3    ||
  Q    E   E  E   E  E   E  E   E  E     Q    E   E  E   E  E   E  E   E  E    ||
--------------------------------------|----------------------------------------||
--L--------------------------------1--|--L--------------------------------1----||
-------2p--0--2p--0--2p--0--2p--0-----|-------2p--0--2p--0-------------------*-||
--------------------------------------|---------------------2p--0------------*-||
--------------------------------------|----------------------------3p--0-------||
--------------------------------------|----------------------------------------||

_________________________________
2nd time                         ||
  |--3-|   |---3--|              ||
  Q    E   E  E   E  E   E  Q    ||
---------------------------------||
--L------------------------------||
-------2p--0--2p--0--------------||
---------------------4s--7--L----||
---------------------4s--7--L----||
---------------------2s--5--L----||

Verse 2

Chorus 2:

     E  Q    E  E  E  E  S  S    E  E  E  Q     E  E  E     E  E  Q    Q.      E
E||-----0----2--5--5--5--5b-6r|--5--2--0--2b----0--------|-------------------------|
B||-----0----2--5--5--5--5b-6r|--5--2--0--2b----0--2-----|-----3--3----5b------2b--|
G||---------------------------|--------------------2--4--|--L--2--2----------------|
D||---------------------------|-----------------------4--|--L----------------------|
A||---------------------------|--------------------------|-------------------------|
E||---------------------------|--------------------------|-------------------------|


                        |----3----|    |----3----|
  E  Q.     H           Q    Q    Q    Q    Q    Q       E  E  E  E  Q      E  E
---------------------|-------0----2----5----0----2----|--5--0--2--5--5br----2--0--|
--L------------------|-------0----2----5----0----2----|--5--0--2--5--5br----2--0--|
-----2---------------|--------------------------------|---------------------------|
---------------------|--------------------------------|---------------------------|
---------------------|--------------------------------|---------------------------|
---------------------|--------------------------------|---------------------------|


  E  E  E  E  H           Q    Q    E  E  E   E     Q    Q    Q    Q
--L-----0--------------|-------7----5-----7s--9--|--L----7----5----4----|
--L--3--0--3-----------|-------7-------7---------|----------------------|
-----2-----2-----------|-------------------------|----------------------|
-----------------------|-------------------------|----------------------|
-----------------------|-------------------------|----------------------|
-----------------------|-------------------------|----------------------|


  E   E  E   E  E   E   E  E     E  E   E   Q    Q    E    W
--4h--5--4h--5--4p--2p--0-----|--------------------------|-------|
------------------------------|-----2h--3h--5----3-------|-------|
------------------------------|--------------------------|-------|
------------------------------|--------------------------|-------|
------------------------------|--------------------------|-------|
------------------------------|--------------------------|-------|


  |----3----|
  Q    Q    Q    E  E  E  E       E  E  E  E  E  E  E  E     E  E  Q    H
-------0----2----5--0--2--5br--|--L--2--0--2--4--5--4--5--|--L--7--5-------------|
-------0----2----5--0--2--5br--|--L--2--0--2--5--7--5--7--|--L--7--7-------------|
-------------------------------|--------------------------|----------------------|
-------------------------------|--------------------------|----------------------|
-------------------------------|--------------------------|----------------------|
-------------------------------|--------------------------|----------------------|

Bridge (mute when singing starts):

  S S S S S S S S S S S S S S S S    S S S S S S S S S S S S S S S S
----------------------------------|----------------------------------|
----------------------------------|----------------------------------|
----------------------------------|----------------------------------|
----------------------------------|----------------------------------|
--9-9-9-9-9-9-9-9-9-9-9-9-9-9-9-9-|--9-7-7-7-7-7-7-7-7-5-5-5-5-5-5-5-|
--7-7-7-7-7-7-7-7-7-7-7-7-7-7-7-7-|--7-7-7-7-7-7-7-7-7-5-5-5-5-5-5-5-|


  S S S S S S S S S S S S S S S S    S S S S S S S S S S S S S S S S
----------------------------------|----------------------------------|
----------------------------------|----------------------------------|
----------------------------------|----------------------------------|
----------------------------------|----------------------------------|
--2-2-2-2-2-2-2-2-2-2-2-2-2-2-2-2-|--0-0-0-0-0-0-0-0-5-5-5-5-7-7-7-7-|
--3-3-3-3-3-3-3-3-3-3-3-3-3-3-3-3-|--3-3-3-3-3-3-3-3-3-3-3-3-5-5-5-5-|

Interlude (1st + 3rd endings)

Chorus 2

End (slower tempo):

  |--3--|  |--3--|              |--3--|
  E  E  E  E  E  E  H           E  E  E   Q    H
--7--9--7--------------------|--------------------------||
--7--------7-----------------|--7--8--7--10-------------||
--7-----------7--------------|--7-----------------------||
-----------------------------|--------------------------||
-----------------------------|--------------------------||
-----------------------------|--------------------------||
Tap to rate this tab
# A B C D E F G H I J K L M N O P Q R S T U V W X Y Z