Song name
# A B C D E F G H I J K L M N O P Q R S T U V W X Y Z

The Rocky Fortune - Tonight We Pray For Rain tab

-----------------------------------------------------------------------------
                TONIGHT WE PRAY FOR RAIN - The Rocky Fortune
-----------------------------------------------------------------------------
Tabbed by: Jake Redekopp
Email: jascha00 gmail.com

Tuning: DCDADF

This song splits up nicely into 4-bar sections, so I wrote them out, then
put a map at the bottom.

s = slide, <> = harmonic, Q = quarter, E = eighth, etc.

A (4x):
       |----------3----------|     |----------3----------|   
       Q       Q       E     E     Q       Q       E     E   
F||--<12>------------<12>--------<12>------------<12>--------|
D||----------<12>----------<12>----------<12>----------<12>--|
A||--<12>----------------------------------------------------|
D||----------------------------------------------------------|
C||----------------------------------------------------------|
D||----------------------------------------------------------|
 
B (4x):           
    |----------3----------|     |--------3--------|    
    Q       Q       E     E     Q       Q     E   E    
--<12>------------<12>--------<12>------------12------||
----------<12>----------<12>----------<12>--------12--||
-------------------------------0----------------------||
---0--------------------------------------------------||
------------------------------------------------------||
------------------------------------------------------||

C (2x):
  |------3-----|  |------3-----|     |------3-----|  |------3-----|   
  Q    Q    E  E  Q    Q    E  E     Q    Q    E  E  Q    Q    E  E   
--0---------0-----0---------0-----|--0---------0-----0---------0-----|
-------0-------0-------0-------0--|-------0-------0-------0-------0--|
----------------------------------|------------------0---------------|
--0-------------------------------|--0-------------------------------|
------------------0---------------|----------------------------------|
----------------------------------|----------------------------------|
 
D:
  |------3-----|  |------3-----|     |------3-----|  |------3-----|   
  Q    Q    E  E  Q    Q    E  E     Q    Q    E  E  Q    Q    E  E   
--4---------4-----4---------4-----|--4---------4-----4---------4-----|
-------5-------5-------5-------5--|-------5-------5-------5-------5--|
----------------------------------|----------------------------------|
------------------0---------------|--3-------------------------------|
--0-------------------------------|------------------0---------------|
----------------------------------|----------------------------------|

  |------3-----|  |------3-----|     |------3-----|  |------3-----|    
  Q    Q    E  E  Q    Q    E  E     Q    Q    E  E  Q    Q    E  E    
--4---------4-----4---------4-----|--4---------4-----4---------4-----||
-------5-------5-------5-------5--|-------5-------5-------5-------5--||
----------------------------------|----------------------------------||
------------------3---------------|--2-------------------------------||
--0-------------------------------|------------------0---------------||
----------------------------------|----------------------------------||

E (4x):
      S S S  S S S S S S S S S S S S S    S S S S S S S S S S S S S S S S  
F||--12p0-0-11p0-0-9p0-7p0-0-9p0-0-7p0-|--5p0-0-7p0-0-4p0-5p0-0-4p0-0-2p0-|
D||------------------------------------|----------------------------------|
A||------------------------------------|----------------------------------|
D||------------------------------------|----------------------------------|
C||------------------------------------|----------------------------------|
D||------------------------------------|----------------------------------|
 
 
  S S S S S S S S S S S S S S S S     S S S S  S S S  S S  S S S  S S S  S   
--2p0-0-4p0-0-5p0-0-7p0-0-5p0-7p0-|--12p0-0-11p0-0-14p0-16p0-0-14p0-0-11p0-||
----------------------------------|----------------------------------------||
----------------------------------|----------------------------------------||
----------------------------------|----------------------------------------||
----------------------------------|----------------------------------------||
----------------------------------|----------------------------------------||

F (Play the first bar 3x, then the second bar once):
 
   |------3------|   |------3------|      |------3------|          |---3---|       
   Q    Q     E  E   Q    Q     E  E      Q    Q     E  E   E  E   S   S   S  E    
--12---------12-----11---------11-----|--12---------12-----11-----11h-12p-11\----||
--------0--------0--------0--------0--|--------0--------0------0-----------------||
--------------------------------------|------------------------------------------||
--------------------------------------|------------------------------------------||
--------------------------------------|------------------------------------------||
--------------------------------------|------------------------------------------||

G (4x):
  |------3-----|  |------3-----|    
  Q    Q    E  E  Q    Q    E  E    
--0---------0-----0---------0-----||
-------5-------5-------5-------5--||
----------------------------------||
----------------------------------||
------------------0---------------||
----------------------------------||

H (Play the first bar 3x, then the second bar once):

  |------3-----|  |------3-----|     |------3-----|  |------3-----|    
  Q    Q    E  E  Q    Q    E  E     Q    Q    E  E  Q    Q    E  E    
--4---------4-----4---------4-----|--2---------2-----1---------1-----||
-------0-------0-------0-------0--|-------0-------0-------0-------0--||
----------------------------------|----------------------------------||
------------------0---------------|------------------0---------------||
----------------------------------|----------------------------------||
----------------------------------|----------------------------------||


Intro: A twice

Verse 1: B, A, B, A, C, D, C, D

Interlude: A

Chorus: B, A, B, A

Verse 2: C, D, C, D

Interlude: A

Solo: E, F

End: G, H, G, H, etc.

****************************************

Guitar 2 (EADGAE)
I tune the B string down to an A so I can play the slide part (3/5, 5\3
on the top two strings)

The only other part where a second guitar seems necessary is the last half
of the solo:

     |----3----|    |----3----|       |----3----|    |-----3-----|     
     Q    Q    Q    Q    Q    Q       Q    Q    Q    Q     Q     Q     
E||--------------------------------|----------------------------------|
A||--------------------------------|----------------------------------|
G||--7----5------------------------|----------------------------------|
D||------------8----7----8----7----|--8----7----5----3s----5s----3----|
A||--------------------------------|----------------------------------|
E||--------------------------------|----------------------------------|
 
 
  |----3----|                     |-----3-----|    |----3----|      
  Q    Q    Q    E  E   E   E     Q     Q     Q    Q    Q    Q      
-------------------------------|----------------------------------||
-------------------------------|------------------------10---8----||
-------------------------------|--5s----3s----5----7--------------||
--2----3----5-------7s--5s--7--|----------------------------------||
-------------------------------|----------------------------------||
-------------------------------|----------------------------------||
 

And these 2 chords go with H and G, respectively:
  W                   W                  
--1----------------|--1----------------||
--0----------------|--0----------------||
--2----------------|--0----------------||
--0----------------|--0----------------||
-------------------|--3----------------||
-------------------|-------------------||
 

Tap to rate this tab
# A B C D E F G H I J K L M N O P Q R S T U V W X Y Z