Song name
# A B C D E F G H I J K L M N O P Q R S T U V W X Y Z

The Rocky Fortune - Ann Marie tab

-----------------------------------------------------------------------------
                       ANN MARIE - The Rocky Fortune
-----------------------------------------------------------------------------
Tabbed by: Jake Redekopp
Email: jascha00 gmail.com

Q = quarter, E = eighth, etc.

Guitar 1:

A (Play 3 times then rest for a bar):
     Q     Q     H         
E||-----------------------|
B||-----------------------|
G||------<12>-------------|
D||------------<12>-------|
A||-----------------------|
E||-----------------------|
 
Intro: A 4x

Verse: Nothing until "fore and aft", then turn on the distortion and play:

     Q    E   Q    E  Q       W           W           W                  
E||--0---------------------|-----------|-----------|--------||
B||--0---------------------|-----------|-----------|--------||
G||*-0---------------------|-----------|--2--------|-------*||
D||*-2-------------0-------|-----------|--4s-------|--5----*||
A||--2----0h--2------------|-----------|--2s-------|--3-----||
E||--0---------------------|-----------|-----------|--------||
 

Chorus 1: A twice

Interlude: A

Verse

Chorus 2:

       E  E   E   E  E   E  Q       E  E  E  E  E  E  E  E   
E||------------------------------|--------------------------|
B||------------------------------|--------------------------|
G||*-------------12--9-----------|--------------------------|
D||*------9--12---------12--9----|--9-----9-----------------|
A||---10-------------------------|-----12----12-10-9-----9--|
E||------------------------------|--------------------12----|
                                     ________________________________
                                      1st time                       ||
   E  E   E  S   S  E  E  S   S  E     E   E  E   E   E   E  E  E    ||
------------------------------------|--------------------------------||
-------------8h-10p-8-----8h-10p-8--|--------------------------------||
------------------------------------|------------------------------*-||
------9--12------------9------------|--9--10--9------12--10--9-----*-||
--10--------------------------------|------------12-------------9----||
------------------------------------|--------------------------------||
_______________________________
2nd time                       ||
  E   E  E   E   E   E  E   E  ||
-------------------------------||
-------------------------------||
-------------------------------||
--9--10--9------12--10--9------||
------------12-------------10--||
-------------------------------||
 
Bridge (If this confuses you, just listen to the song):
$ denotes 1st + 3rd time only

     W                   H        H            W              W                 
E||-------------------|--------------------|---------------|------------|
B||-------------------|--------------------|---------------|------------|
G||-------------------|--------------------|---------------|------------|
D||-------------------|--------------------|---------------|------------|
A||--9----------------|-----------9--------|--10-----------|------------|
E||-------------------|--------------------|---------------|------------|
 
 
    Q    H         Q       H     H         W              W            3x   
|-----------------------|--------------|---------------|----------------||
|-----------------------|--------------|---------------|----------------||
|*----------------11$---|--------------|---------------|--------------*-||
|*----------------------|--------------|---------------|--------------*-||
|---9----9--------------|--------9-----|--10-----------|----------------||
|-----------------------|--------------|---------------|----------------||
 

   E  E  E  Q.     Q        E  E  E  Q    Q    E   
|--------3--------------|-------------------------|
|-----------3-----------|---------8--5------------|
|*----4-----------------|------7----------7----7--|
|*-2---------------2----|--/5---------------------|
|-----------------------|-------------------------|
|-----------------------|-------------------------|
____________________________________________________  ___________
1st time                                            || 2nd time  ||
  E  E  E  E  E  E  Q        E  E  E  Q    E  E  E  ||  W        ||
--------------------------|-------------------------||-----------||
-----------8--------------|-------------------------||-----------||
-----5-----------5--------|-----------5----4-------*||-----------||
--7-----7-----7-----7\----|-----4----------------4-*||--7--------||
--------------------------|--5-----5----------5-----||-----------||
--------------------------|-------------------------||-----------||
 
Chorus: play chorus 1, then chorus 2 4x, using the 1st ending each time

End (Listen for the strumming pattern):

  W     W     W     W   
--3--|--3--|--3--|--3--||
--0--|--1--|--0--|--3--||
--0--|--0--|--0--|--0--||
-----|-----|-----|-----||
-----|-----|-----|-----||
-----|-----|-----|-----||
 
******************************************************************

Guitar 2:

Intro:
     W           W           W           W                                      
E||--3--|-----|-----|-----|-----|-----|-----|-----|
B||--3--|-----|-<7>-|-----|-----|-----|-<7>-|-----|
G||--4--|-----|-----|-----|-----|-----|-----|-----|
D||--5--|-----|-----|-----|--2--|-----|-----|-----|
A||-----|-----|-----|-----|--2--|-----|-----|-----|
E||-----|-----|-----|-----|--0--|-----|-----|-----|
 

Verse (4x):
   Q.     E  E  E  E  E     E  E  E  E  E  E  E  E   
|------------------------|--------------------------|
|------------------------|--------------------------|
|---------0-----0--------|-----0-----------0--------|
|--2---------2-----2-----|--------4-----------4-----|
|---------------------2--|--5--------5-----------5--|
|------------------------|--------------------------|
 
 
   E  Q    E  Q    E  E     E  E  E  E  Q    Q      
|------------------------|------------------------|
|-------------0-------0--|------------------------|
|-----0------------------|-----2-----2--4---------|
|------------------------|------------------------|
|--2-------2-------2-----|--3-----3----------3----|
|------------------------|------------------------|
 
Chorus 1 (2x):

   Q  Q  Q  Q     Q  Q  Q  Q     Q  Q  Q  Q     Q  Q  Q  Q      
|--------------|--------------|--------------|--------------|
|-----0-----0--|-----0-----0--|-----0--1-----|--------------|
|--0-----0-----|--0-----0-----|--0--------0--|--0-----0-----|
|--------------|--------------|--------------|-----0-----0--|
|--------------|--------------|--------------|--------------|
|--------------|--------------|--------------|--------------|

Verse

Chorus 2 (2x):

   W     W     W     W
|--3--|--0--|--0--|--0---|
|--3--|--1--|--0--|--1---|
|--4--|--2--|--0--|--0---|
|--5--|--2--|--2--|--2---|
|-----|-----|-----|------|
|-----|-----|-----|------|

Bridge (6x):

   Q    H.       H        H           W          W                  
|--2----2-----|-----------2--------|--0-------|---------|
|--3----3-----|-----------3--------|--1-------|---------|
|--4----2-----|-----------4--------|--0-------|---------|
|-------------|--------------------|----------|---------|
|-------------|--------------------|----------|---------|
|-------------|--------------------|----------|---------|

Chorus 1

Chorus 2 twice

End (16x):

   Q    Q    E  E  E  E   
|-------3----------------|
|-------3----------------|
|-------0-------0--0-----|
|--2---------2--------2--|
|------------------------|
|------------------------|
 
Very End (first bar 3x):
                          3x
     Q    Q    E  E  E  E      Q    Q    E  E  E  E     W                  
E||------------------------||------------------------|--------||
B||------------------------||------------------------|--------||
G||*------0-------0--0----*||-------0-------0--0-----|--------||
D||*-2---------2--------2-*||--2---------2-----------|--------||
A||------------------------||------------------------|--------||
E||------------------------||---------------------0--|--0-----||
 

*****************************************************************

Guitar 3:
Intro:
[] denotes artificial harmonic. Play 12 frets down with the left hand, 
use your right index finger to create the harmonic, and pick with your thumb.

     Q.      Q.     Q        Q.      Q.     Q       Q.     Q.     Q     
E||----------------------|-----------------------|---------------------|
B||----------------------|-----------------------|-<7>-----------------|
G||----------------------|-<12>------------------|--------<7>----------|
D||--------<12>----------|---------<12>----------|---------------------|
A||----------------------|-----------------------|---------------------|
E||----------------------|-----------------------|---------------------|
 
   Q.      Q.     Q       Q     Q     E   E  Q        Q.      Q.     Q     
-----------------------|--------------------------|-----------------------|
-----------------------|--------------------------|-----------------------|
-<12>------------------|--------------------------|-<12>------------------|
---------<12>----------|----------------<12>------|---------<12>----------|
-----------------------|------------[14]----------|-----------------------|
-----------------------|------[15]----------------|-----------------------|
 
  Q.     Q.     Q        Q.      Q.     Q      
---------------------|-----------------------|
-<7>-----------------|-----------------------|
--------<7>----------|-<12>------------------|
---------------------|---------<12>----------|
---------------------|-----------------------|
---------------------|-----------------------|

Verse (4x):

   Q    Q.     Q.        H        Q    Q      
|---------------------|---------------------|-----|-----|
|------<7>------------|----------<5>--------|-----|-----|
|-------------<7>-----|---------------<5>---|-----|-----|
|---------------------|---------------------|-----|-----|
|---------------------|---------------------|-----|-----|
|---------------------|---------------------|-----|-----|
 
Chorus (just play the last bar):

   H        E  E  E  E    
|-----------------------|
|-----------------3-----|
|-----------5--4-----4--|
|-----------------------|
|-----------------------|
|-----------------------|
 

Verse

Chorus

Then don't play until the end.

End (play many times):

  Q    Q.     Q.      
---------------------|
------<7>------------|
-------------<7>-----|
---------------------|
---------------------|
---------------------|


Tap to rate this tab
# A B C D E F G H I J K L M N O P Q R S T U V W X Y Z