The Rodeo Carburettor - Speed Of Flow tab

----------------------------------------------------------------------------
	          The rodeo carburettor - Speed of flow
----------------------------------------------------------------------------
Tuning: Standard
Key: C Minor

Chords used
 AbM  A#M  Cm  C5+2nd
e|-4---6----3----3-|
B|-4---6----4----3-|
G|-5---7----5----5-|
D|-6---8----5----5-|
A|-6---8----3----3-|
E|-4---6-----------|


Riff 1 (intro) x2
e|-----------------|
B|-8- x6-3-x6-4-x8-|
G|-10^---5^---6^---|
D|-----------------|
A|-----------------|
E|-----------------|

Verse 1
AbM A#M
AbM A#M Cm C5+2nd Spmetimes played with Palm muting

Choruse (same chords)
Lead play twice
e|--------------------------------------------|
B|--------------------------------------------|
G|-(8887777777 x3 555777)(8887777777555777 x2)|
D|--------------------------------------------|
A|--------------------------------------------|
E|--------------------------------------------|

Vers 2 (same as verse 1)
Chorus
Riff 1

Solo!
e|----------------(11 x6)-------------------11-10-8---------|
B|-88-1010-8-1010-(11---)-88-1010-88-101010---------11-8----|
G|-88-1010-8-1010---------88-1010-88-101010--------------10-|
D|----------------------------------------------------------|
A|----------------------------------------------------------|
E|----------------------------------------------------------|

e|------------------|
B|-------------3-4--|
G|---10^-------5^6^-|
D|-10----1-4--------|
A|------3-3-3-------|
E|------------------|

Verse
Chorus
Riff 1
AbM

E----|
B----|
G----|
D----|
A----|
E-4/-|

Corrections?
Tap to rate this tab
 
# A B C D E F G H I J K L M N O P Q R S T U V W X Y Z