Song name
# A B C D E F G H I J K L M N O P Q R S T U V W X Y Z

The Royal Chains - Lucy Takes The Dare tab

Very easy song, still fun to play along with the song though. The band has a
great sound. You can capo 7 if you want.
Tabbed by: SooStoked
Email: soostoked@gmail.com

Tuning:Standard (EADGBe)

Main riff
e|-----------------------------------------------|
B|---9-10-7-9----------------------9-----------7-|
G|--------------9-11-8-9-8-------9---9------8----|
D|-------------------------10/11---------10------|
A|-----------------------------------------------|
E|-----------------------------------------------|

Ending
e|---------------------------------------------------|
B|-----9-------9-10-7-9----------------------9-------|
G|---9---9----------------9-11-8-9-8-------9---9-----|
D|-----------------------------------10/11-------11--|
A|-7-------------------------------------------------|
E|---------------------------------------------------|

http://www.theroyalchains.com/
Tap to rate this tab
 
# A B C D E F G H I J K L M N O P Q R S T U V W X Y Z