Song name
# A B C D E F G H I J K L M N O P Q R S T U V W X Y Z

The Royal Concept - Gimme Twice tab

Standard Tuning (EADGBe)

e |----10-10----10-10-10-12--8----|--10--10--10--10--8----8--8--8--8---6--|
B |--------------------------8----|--8---8---8---8---8----7--7--7--7---7--|
G |--8--------8--------------8----|--8---8---8---8---8----8--8--8--8---8--|
D |-------------------------------|---------------------------------------|
A |-------------------------------|---------------------------------------|
E |-------------------------------|---------------------------------------|

  |----10-10----10-10-10-12--8----|--10--10--10--10--8----8--8--8--8---6--|
  |--------------------------8----|--8---8---8---8---8----7--7--7--7---7--|
  |--8--------8--------------8----|--8---8---8---8---8----8--8--8--8---8--|
  |-------------------------------|---------------------------------------|
  |-------------------------------|---------------------------------------|
  |-------------------------------|---------------------------------------|
Tap to rate this tab
# A B C D E F G H I J K L M N O P Q R S T U V W X Y Z