Song name
# A B C D E F G H I J K L M N O P Q R S T U V W X Y Z

The Royal Concept - Gimme Twice tab

e|----11-11------11-11----9~---11x5--9x4--7-----|
B|------------------------9~---9x5---9x4--7-----|
D|----------11-11------11-9~---9x5---9x4--8-----|
G|----------------------------------------------|
A|----------------------------------------------|
E|----------------------------------------------|


e|----11-11------11-11-14---9~---11x5--9x4--7--|
B|--------------------------9~---9x5---9x4--7--|
D|----------11-11-----------9~---9x5---9x4--8--|
G|---------------------------------------------|
A|---------------------------------------------|
E|---------------------------------------------|

Here are the tabs you can figure out the timing and strumming on your own after sometime :)
its quite simple took me just a few mins to figure it out
Tap to rate this tab
 
# A B C D E F G H I J K L M N O P Q R S T U V W X Y Z