The Royal Scots Dragoon Guards - Highland Cathedral tab

-------------------------------------------------------------------------------
			    highland cathedral
-------------------------------------------------------------------------------
Tabbed by:daniel13579
Email:

Tuning:standard

e|--------------------------------------------------------------------------|
B|---3----------5-----------7-----------5--------------3--------------------|
G|--------------------------------------------------------------------2-----|
D|--------------------------------------------------------------------------|
A|--------------------------------------------------------------------------|
E|--------------------------------------------------------------------------|


e|--------------------------------------------------------------------------|
B|----3-------------------5--------------------7-7-----------7-------8------|
G|--------------------------------------------------------------------------|
D|--------------------------------------------------------------------------|
A|--------------------------------------------------------------------------|
E|--------------------------------------------------------------------------|


e|---------------------------------------------------------------------------|
B|------------------10---------8------7---------5---------------3------------|
G|---------------------------------------------------------------------------|
D|---------------------------------------------------------------------------|
A|---------------------------------------------------------------------------|
E|---------------------------------------------------------------------------|

e|---------------------------------------------------------------------------|
B|----5------------------7--------------------0--------2--------3-3----------|
G|----------------------------------2----------------------------------------|
D|---------------------------------------------------------------------------|
A|---------------------------------------------------------------------------|
E|---------------------------------------------------------------------------|


e|--------------------------------------------------------------------------|
B|------------------2--------3-----------10---------8--------7--------------|
G|---------2----------------------------------------------------------------|
D|--------------------------------------------------------------------------|
A|--------------------------------------------------------------------------|
E|--------------------------------------------------------------------------|


e|--------------------------------------------------------------------------|
B|-------5----------7----------8--------7----------3------------------3-----|
G|----------------------------------------------------------2---------------|
D|--------------------------------------------------------------------------|
A|--------------------------------------------------------------------------|
E|--------------------------------------------------------------------------|


e|--------------------------------------------------------------------------|
B|---5----------3-------3-3-------------------------------------------------|
G|--------------------------------------------------------------------------|
D|--------------------------------------------------------------------------|
A|--------------------------------------------------------------------------|
E|--------------------------------------------------------------------------|
Tap to rate this tab
 
# A B C D E F G H I J K L M N O P Q R S T U V W X Y Z