Song name
# A B C D E F G H I J K L M N O P Q R S T U V W X Y Z

The Rubens - The Best We Got chords

Highlighted       Show chord diagrams
-----------------------------------------------------------------------------
                             The Best We Got - The Rubens
-----------------------------------------------------------------------------
Tabbed by: Dellios


Tuning: Standard

Chords Used

            Am         D#           F

e|----------5----------5-----------8-----|
B|----------5----------6-----------10----|
G|----------5----------7-----------10----|
D|----------7----------7-----------10----|
A|----------7----------5-----------8-----|
E|----------5----------x-----------x-----|

These are the chords that he uses while playing.  Feel free to use open chords if 
they're more comfortable.

Verses

Am                   D#
   One more, more or less then we're done

F                   D#
   Can't be sure if we had fun

Am               D#
   Sweet sixteen been and gone

F                D#
   Eighteen next year then we're done

   Am    D#    F    Am   (between verses)

   Am    Am  (into chorus)

Chorus

             (Am)                    D#       Am
   Yeah they say, these days are the best we got

          F       Am
   What a tragic thought

         (Am)                   D#          Am
   And I try, and I try, not to waste this time

          F          Am      D#     Am
   But it just flies by, the more I try


   D#   Am


Bridge

Am
   La la la la la laaaaaa

D#
   La la la la la laaaaaa

F               D#
   La la la la laaaaaa

Am
   La la la la la laaaaaa

D#
   La la la la laaaaa

F                  D#
   La la la la la laaaaa


Outro

Am
   La la la la la laaaaa

D#
   La la la la la laaaaa

F               D#
   La la la la laaaaa

             Am                      D#
   Yeah they say, these days are the best we got

       F          D#
   The best we got

------------------------

Hope this helped
Tap to rate this tab
# A B C D E F G H I J K L M N O P Q R S T U V W X Y Z