Song name
# A B C D E F G H I J K L M N O P Q R S T U V W X Y Z

The Rumble Strips - London chords

Highlighted       Show chord diagrams
-------------------------------------------------------------------------------
			     London - The Rumble Strips
-------------------------------------------------------------------------------
Tabbed by: Daniel Williams
Email: :)

Tuning: Standard

Bear in mind I worked this out quite quickly and it could easily not be correct
Also I guessed the lyrics

Play all the chords like this apart from the E chord

  A   G   F
e|5---3---1-------------------------------------------------------------|
B|5---3---1-------------------------------------------------------------|
G|6---4---2-------------------------------------------------------------|
D|7---5---3-------------------------------------------------------------|
A|7---5---3-------------------------------------------------------------|
E|x---x---x-------------------------------------------------------------|


A A

A
And we're bored
A                      G
And we're bored to the bone
      A
Conversation
A                          G
Some things are best left alone

G
Oh
A                       D5 (power chord A string 5th fret)
Why can't I love you in London?
A                       D5
Why can't I love you in London?

E E F G

A
And they're talking
A                   G
But just outside my window
            A
It's just a whisper
                G
But it's you, I know
G
I know. Oh no. Oh no.

A                       D5
Why can't I love you in London?
A                       D5
Why can't I love you in London?

E
       And when the
F  G    A
Morning comes
                   D5               E
We won't mention a thing
       F G    A                 D5
It was only a cheap second-hand ring

A                       D5            A
Why can't I love you in London? Oh oh oh
A

A
And we're bored
A                      G
And we're bored to the bone
         A
And you wear it
A                    G
Like a cheap leather coat
G
Oh! We're so pretty, we're so broke!

(Then the guitar stops here for a bit, but you can always add it in if you're 
playing acoustically)

Why can't I love you in London?
Why can't I love you in London?
A                       D5
Why can't I love you in London?
A                       D5
Oh oohhh oh Oh oohhh oh
A                       D5
Oh oohhh oh Oh oohhh oh
A                       D5         etc. (Just 'oh' a bit)
Oh oohhh oh Oh oohhh oh
A                       D5
Oh oohhh oh Oh oohhh oh

A to end.
Tap to rate this tab
# A B C D E F G H I J K L M N O P Q R S T U V W X Y Z