Song name
# A B C D E F G H I J K L M N O P Q R S T U V W X Y Z

The Rumour Said Fire - The Balcony tab

Hi, this is my first tab so bear with me if this isn't 100 % precise. I'm not sure about 
last part, but I gave it my best shot. Enjoy!

|----------------------------------------------------------|
|----------------------------------------------------------|
|--7-6-----------------------------------------------------|
|------9-7-9---------7----------7--------------------------|
|------------9---9-7---9-(9)-7----9--7--9----5-9-7---5-----|
|--------------------------------------------------------9-|


|----------------------------------------------------------|
|----------------------------------------------------------|
|----------------------------------------------------------|
|----------------------------------------------------------|
|----------------9-(9)---5-9-7---5-----------5-------------|
|-5-7----5-7-5-7--------------------9--7-7-9---9-5-7--7----|
Tap to rate this tab
# A B C D E F G H I J K L M N O P Q R S T U V W X Y Z