Song name
# A B C D E F G H I J K L M N O P Q R S T U V W X Y Z

The Rumour Said Fire - Evil Son chords

Highlighted       Show chord diagrams
Intro 
Am C F Am  G F Am G
 

 Am           C              F     Am
Stuck in the middle of something
 G              F       Am    G 
Here – take a corner of me
  Am        C          F      Am
There’s no need to be gentle
 G             F          Am    G
Take off your corners or leave


 Am                C              F             Am
Caught you in the middle of a car crash, With people
    G                 F         Am    G
repeating you’ve got lover’s disease
  Am       C                               F                 Am
Among the doctors and the killers and the bombs in a broken artillery 
G           F          Am    G     
I’m still learning to read


Chorus:

 G              G7          F    Am
There’s nothing here to discover 
G         F               Am               G
So don’t disturb all the others with your fear
 G               G7         F                Am
There’s nothing here to discover unless it’s real 
     G            F     Am    Am   
like dead men in automobiles 

Riff:
F C G Am  G F Am G  x 2

  Am           C              F          Am
Broke all the handles off my windows at winter
  G         F               Am      G 
Son, look what you made me do, to myself
 Am           C                              F                    Am
You broke my heart now let me break you’re teeth with the silence here
 G     F       Am    G 
La da la la da da


G              G7          F    Am
There’s nothing here to discover 
G         F               Am               G
So don’t disturb all the others with your fear
 G               G7         F                Am
There’s nothing here to discover unless it’s real 
     G            F     Am    Am   
like dead men in automobiles 

Riff:
F C G Am  G F Am G  x 2


Outro:
Am     Em     F       Am
La, la la, la dada da da

   C      G      Dm (sus2) Am 
La da, la da, la dada da da 




Følgende er inspiration til hvordan man kan spille riff-melodien og akkorderne på samme tid med fingerspil. 

   |   F   | |    C    |    |   G   | |   Am    | 
e --1-----1---0-------------------------------------|
B ----2-----3---1-----1-0^1--3-----3-0-1----------0-|
G ------3---------2------------0---------2-----2----|
D -----------------------------------------2--------|
A ------------3-----3------------------0-----0----0-|
E --1-----1------------------3---3------------------|

  |  G   |  |   F   |   Am   |      G       |
e -----------------------------3-3-3-3--------|
B -3-----3-0-1-----1-------------------3-3-3--|
G ---0---------2-----2-----2-----------0-0-0--|
D ---------------------2-------0-0-0-0--------|
A -------------------0---0--------------------|
E -3---3-----1---1----------------------------|
Tap to rate this tab
 
# A B C D E F G H I J K L M N O P Q R S T U V W X Y Z