Song name
# A B C D E F G H I J K L M N O P Q R S T U V W X Y Z

The Rural Alberta Advantage - The Dethbridge In Lethbridge chords

Highlighted       Show chord diagrams
----------------------------------------------------------------------------
	    The Dethbridge in Lethbridge - The Rural Alberta Advantage
----------------------------------------------------------------------------

Tabbed by: J.Z.
Email: guszayas@yahoo.com

Just a couple of changes to joefourtwo's tab. 

Tuning: Standard - Capo on third fret, all chords relative to capo


Chords used: 
	        Am      Dsus2	      Em	       Em7	       G6	    C	     Cadd9
e|------0---------0---------0----------0---------0------0---------0-----|
B|------1---------3---------0----------3---------0------1---------3-----|
G|------2---------2---------0----------0---------0------0---------0-----|
D|------2---------2---------2----------2---------0------2---------2-----|
A|------0---------0---------2----------2---------2------3---------3-----|
E|------X---------X---------0----------0---------3------X---------X-----|

**Chords are basically Am, Em, G6 and C, however, he plays the B string on the 3rd 
fret on top of the basic chords
 to add color. Ex. (Am + B string on 3rd fret = Dsus2) **

Intro: Am Dsus2     Am Dsus2     C Cadd9     Em Em7 x2

Am Dsus2     Am Dsus2    	       C Cadd9     Em Em7
I left your heartbeat in this town

Am Dsus2     Am Dsus2    	        C Cadd9     Em Em7
I left your heartbeat in the ground

G6 	                              C  Cadd9
and when there's nothing for us now

G6 	                           |-------(end on C)
You let me down I let you down

When your Grandfathers in the ground

(resume with the intro)
Am Dsus2     Am Dsus2     C Cadd9     Em Em7 x2

We live in this old aching town
Our creaking bones won't make a sound
You felt the old bridge weigh us down
Let's try to turn our love around 
& take the Dethbridge out of town

Chorus: Am Dsus2      Em Em7      C Cadd9       G6   x2

(resume with the intro)
Am Dsus2     Am Dsus2     C Cadd9     Em Em7 x2

I left your cold heart in this town
With family headstones all around
& when there's nothing for us now
You let me down I let you down
with your Grandfather in the ground

Chorus: Am Dsus2      Em Em7      C Cadd9       G6   x2

End with Am
Tap to rate this tab
# A B C D E F G H I J K L M N O P Q R S T U V W X Y Z