The Rural Alberta Advantage - Frank Ab tab

Artist: The Rural Alberta Advantage
Song: Frank, AB
Tabbed by: JJaySteyn
Tuning: Standard (E A D G B e)
Time: 4/4 130bpm

Intro
|----------------|----------------|   
|----------------|----------------|
|----------------|----------------|
|----------------|----------------|
|-7-7-7-7-7-7-7-7|-7-7-7-7-7-7-7-7|
|-7-7-7-7-7-7-7-7|-7-7-7-7-7-7-7-7|
  x x x x x x x x   x x x x x x x x

Verse 1
 Em                G               Bm               A 
|----------------|----------------|----------------|----------------|
|----------------|----------------|----------------|----------------|
|----------------|----------------|----------------|----------------|
|----------------|----------------|-4-4-4-4-4-4-4-4|-2-2-2-2-2-2-2-2|
|-2-2-2-2-2-2-2-2|-2-2-2-2-2-2-2-2|-2-2-2-2-2-2-2-2|-0-0-0-0-0-0-0-0|
|-0-0-0-0-0-0-0-0|-3-3-3-3-3-3-3-3|----------------|----------------|
  x x x x x x x x  x x x x x x x x  x x x x x x x x  x x x x x x x x

 Em                G               Bm               
|----------------|----------------|----------------|----------------|
|----------------|----------------|----------------|----------------|
|----------------|----------------|----------------|----------------|
|----------------|----------------|-4-4-4-4-4-4-4-4|-4-4-4-4-4-4-4-4| X2
|-2-2-2-2-2-2-2-2|-2-2-2-2-2-2-2-2|-2-2-2-2-2-2-2-2|-2-2-2-2-2-2-2-2|
|-0-0-0-0-0-0-0-0|-3-3-3-3-3-3-3-3|----------------|----------------|
  x x x x x x x x  x x x x x x x x  x x x x x x x x  x x x x x x x x

then
|----------------|----------------|
|----------------|----------------|
|----------------|----------------|
|-4-4-4-4-4-4-4-4|-4-4-4-4-4-4-4-4|
|-2-2-2-2-2-2-2-2|-2-2-2-2-2-2-2-2|
|----------------|----------------|
  x x x x x x x x  x x x x x x x x

Chorus
 Em                                Bm              
|----------------|----------------|----------------|----------------|
|----------------|----------------|----------------|----------------|
|-0-0-0-0-0-0-0-0|-0-0-0-0-0-0-0-0|-4-4-4-4-4-4-4-4|-4-4-4-4-4-4-4-4|
|-2-2-2-2-2-2-2-2|-2-2-2-2-2-2-2-2|-4-4-4-4-4-4-4-4|-4-4-4-4-4-4-4-4|
|-2-2-2-2-2-2-2-2|-2-2-2-2-2-2-2-2|-2-2-2-2-2-2-2-2|-2-2-2-2-2-2-2-2|
|-0-0-0-0-0-0-0-0|-0-0-0-0-0-0-0-0|-2-2-2-2-2-2-2-2|-2-2-2-2-2-2-2-2|

 D                                 A
|----------------|----------------|----------------|----------------|
|----------------|----------------|----------------|----------------|
|-2-2-2-2-2-2-2-2|-2-2-2-2-2-2-2-2|-2-2-2-2-2-2-2-2|-2-2-2-2-2-2-2-2|
|-0-0-0-0-0-0-0-0|-0-0-0-0-0-0-0-0|-2-2-2-2-2-2-2-2|-2-2-2-2-2-2-2-2| X2
|----------------|----------------|-0-0-0-0-0-0-0-0|-0-0-0-0-0-0-0-0|
|----------------|----------------|----------------|----------------|

Verse 2(no muting)
 Em                G               Bm               A 
|----------------|----------------|----------------|----------------|
|----------------|----------------|----------------|----------------|
|----------------|----------------|----------------|----------------|
|----------------|----------------|-4-4-4-4-4-4-4-4|-2-2-2-2-2-2-2-2|
|-2-2-2-2-2-2-2-2|-2-2-2-2-2-2-2-2|-2-2-2-2-2-2-2-2|-0-0-0-0-0-0-0-0|
|-0-0-0-0-0-0-0-0|-3-3-3-3-3-3-3-3|----------------|----------------|

 Em                G               Bm               
|----------------|----------------|----------------|----------------|
|----------------|----------------|----------------|----------------|
|----------------|----------------|----------------|----------------|
|----------------|----------------|-4-4-4-4-4-4-4-4|-4-4-4-4-4-4-4-4| X2
|-2-2-2-2-2-2-2-2|-2-2-2-2-2-2-2-2|-2-2-2-2-2-2-2-2|-2-2-2-2-2-2-2-2|
|-0-0-0-0-0-0-0-0|-3-3-3-3-3-3-3-3|----------------|----------------|

then
|----------------|----------------|
|----------------|----------------|
|----------------|----------------|
|-4-4-4-4-4-4-4-4|-4-4-4-4-4-4-4-4|
|-2-2-2-2-2-2-2-2|-2-2-2-2-2-2-2-2|
|----------------|----------------|

Outro
 Em                                Bm              
|----------------|----------------|----------------|----------------|
|----------------|----------------|----------------|----------------|
|----------------|----------------|----------------|----------------|
|----------------|----------------|-4-4-4-4-4-4-4-4|-4-4-4-4-4-4-4-4|
|-2-2-2-2-2-2-2-2|-2-2-2-2-2-2-2-2|-2-2-2-2-2-2-2-2|-2-2-2-2-2-2-2-2|
|-0-0-0-0-0-0-0-0|-0-0-0-0-0-0-0-0|----------------|----------------|
  x x x x x x x x  x x x x x x x x  x x x x x x x x  x x x x x x x x

 D                                 A
|----------------|----------------|----------------|----------------|
|----------------|----------------|----------------|----------------|
|-2-2-2-2-2-2-2-2|-2-2-2-2-2-2-2-2|----------------|----------------|
|-0-0-0-0-0-0-0-0|-0-0-0-0-0-0-0-0|-2-2-2-2-2-2-2-2|-2-2-2-2-2-2-2-2| X3
|----------------|----------------|-0-0-0-0-0-0-0-0|-0-0-0-0-0-0-0-0|
|----------------|----------------|----------------|----------------|
  x x x x x x x x  x x x x x x x x  x x x x x x x x  x x x x x x x x

Lyrics

(Verse)
My Love I will hold on to your touch 
Until there's nothing left of us
.... save you from this life

And the cold depths of the Rockies touch
Won't take away our love
.... save you from this life

(Chorus)
a ooh a ooh 
a ooh a ooh
a ooh a ooh
a ooh a ooh

a ooh a ooh 
a ooh a ooh
a ooh a ooh
a ooh a ooh

(Verse)
and I'll hold ..... I'll hold on to your touch 
'til there's nothing left of us
.... save you from this life


I'll hold ..... I'll hold on to your touch 
'til they find the bones of us
.... save you from this life

(Chorus)
a ooh a ooh 
a ooh a ooh
a ooh a ooh
a ooh a ooh

a ooh a ooh 
a ooh a ooh
a ooh a ooh
a ooh a ooh

(Outro)
And under the rubble of the mountain that tumbled
I'll hold you forever
I'll hold you forever

And under the rubble of the mountain that tumbled
I'll hold you forever
I'll hold you forever

They'll build up another on the bodies of our brothers
I'll love you forever	

Play order:
Intro
Verse1
Chorus
Verse2
Chorus
Outro

x - palm mute

Thats it!!! Not totally sure about the Chorus part...but its the right chords so 
contact me if you think I can improve on something.
JJay
Tap to rate this tab
 
# A B C D E F G H I J K L M N O P Q R S T U V W X Y Z