Song name
# A B C D E F G H I J K L M N O P Q R S T U V W X Y Z

The Rural Alberta Advantage - The Cold Side Of Holding On tab

-------------------------------------------------------------------------------
       The Cold Side of Holding On - Rural Alberta Advantage
-------------------------------------------------------------------------------
Tabbed by:  Brad H.
Email:  midcoastsurf@gmail.com

Tuning:  Standard w/ capo on 7th fret

Verse 1

D chord

e|------------2-------------2------------2-----------------------------------|
B|-------3-----------3-------------3-------------3--------3------------------|
G|---------------------------------------------------------------------------|
D|----0----0-----0------0-------0-----0------0-------0-----------------------|
A|---------------------------------------------------------------------------|
E|---------------------------------------------------------------------------|


G Chord

e|---------------0---------------0-------------0-----------------------------|
B|-------3---------------3--------------3------------3------3----------------|
G|---------------------------------------------------------------------------|
D|---------------------------------------------------------------------------|
A|---------------------------------------------------------------------------|
E|---3-------3-------3-------3------3------3------3-----3--------------------|


D Chord

e|--------------2------------2------------2----------------------------------|
B|-------3-------------3------------3------------3------3--------------------|
G|---------------------------------------------------------------------------|
D|---------------------------------------------------------------------------|
A|---------------------------------------------------------------------------|
E|---0------0------0------0-----0------0------0-----0------------------------|

A Chord

e|--------------0-------------0-------------------0--------------------------|
B|-------2-------------2-------------2------2h3------------------------------|
G|---------------------------------------------------------------------------|
D|---------------------------------------------------------------------------|
A|---0------0------0------0------0------0------------0-----------------------|
E|---------------------------------------------------------------------------|


Chorus

     E     G     D     A         E     G     A
e|---------------3-----------------------------------------------------------|
B|---------------2-----2---------------------2-------------------------------|
G|---------0-----3-----2---------------0-----2-------------------------------|
D|---2-----0-----------2---------2-----0-----2-------------------------------|
A|---2-----2---------------------2-----2-------------------------------------|
E|---0-----3---------------------0-----3-------------------------------------|

Verse 2

D chord

e|------------3p2--------------------3p2-------------------------------------|
B|-------3---------3-----3-----3-----------3-----3---------------------------|
G|---------------------------------------------------------------------------|
D|----0----0----------0-----0-----0-----------0------------------------------|
A|---------------------------------------------------------------------------|
E|---------------------------------------------------------------------------|


G Chord

e|---------------3p0-----------------------3p0-------------------------------|
B|-------3------------3------3------3------------3------3--------------------|
G|---------------------------------------------------------------------------|
D|---------------------------------------------------------------------------|
A|---------------------------------------------------------------------------|
E|---3-------3-----------3------3------3------------3------------------------|


D Chord

e|--------------3p0-----------------------3p0--------------------------------|
B|-------3------------3-----3-------3----------3------3----------------------|
G|---------------------------------------------------------------------------|
D|---------------------------------------------------------------------------|
A|---------------------------------------------------------------------------|
E|---0------0------------0-----0------0-----------0--------------------------|

A Chord

e|--------------0-------------0-------------------0--------------------------|
B|-------2-------------2-------------2------2h3------------------------------|
G|---------------------------------------------------------------------------|
D|---------------------------------------------------------------------------|
A|---0------0------0------0------0------0------------0-----------------------|
E|---------------------------------------------------------------------------|

Then repeat the same pattern as the first verse, then into the Chorus again, then 
pluck the D chord a few times.




************************************

| /   slide up
| \   slide down
| h   hammer-on
| p   pull-off
| ~   vibrato
| +   harmonic
| x   Mute note
| b   Bend
| pb  Pre-bend
| br  Bend release
| pbr Pre-bend release
| brb Bend release bend

************************************
Tap to rate this tab
 
# A B C D E F G H I J K L M N O P Q R S T U V W X Y Z