Song name
# A B C D E F G H I J K L M N O P Q R S T U V W X Y Z

The Rutabega - Fluorescent Funeral tab

-------------------------------------------------------------------------------
			     FLUORESCENT FUNERAL - The Rutabega
-------------------------------------------------------------------------------
Tabbed by: Volpone

Tuning: Standard

Main Riff, continues all through song
    Bm                        Bm/A
e|--------------------------|----------------------------|
B|--------------------------|----------------------------|
G|--------------------------|----------------------------|
D|-----4-----4-----4-----4--|-----4-----4-----4------4---|
A|--2-----2-----2-----2-----|--0-----0-----0-----0-------|
E|--------------------------|----------------------------|


Chorus
      F#       B     
e|----9-----|----7----|
B|----11----|----7----|
G|----11----|----8----|
D|----11----|----9----|
A|----9-----|----9----|
E|----------|----7----|

Outro
    Bm                        Bm/A
e|--------------------------|----------------------------|
B|-----------------------3--|------------------------3---|
G|--------------------0-----|--------------------0-------|
D|-----4-----4-----4--------|-----4-----4-----4----------|
A|--2-----2-----2-----------|--0-----0-----0-------------|
E|--------------------------|----------------------------|


Website:http://www.myspace.com/therutabega
album:http://en.wikipedia.org/wiki/The_Rutabega/Owen_Split_EP
Tap to rate this tab
# A B C D E F G H I J K L M N O P Q R S T U V W X Y Z