Song name
# A B C D E F G H I J K L M N O P Q R S T U V W X Y Z

The Saddest Landscape - A Statue Of A Girl May 15th tab

The Saddest Landscape - A Statue of a Girl
Intro
e ---5--------5--------5--------5-------5-------5---------------|
B ------6--------6--------6--------6-------6-------6------------|
G ---------7--------7-----------------7-------7-----------------|
A -0--------------------------0---------------------------------|
D --------------------------------------------------------------|
E --------------------------------------------------------------|

(continued)
e --3--------3--------3--------3--------3--------3--------------|
B -----0--------0--------0--------0--------0--------0-----------|
G --------5--------5-----------------5--------5-----------------|
D -0------------------------0-----------------------------------|
A --------------------------------------------------------------|
E --------------------------------------------------------------|

e -7--3--------|
B -7--3--------|
G -9--5--------| x4
D -9--5--------|
A -7--3--------|
E -------------|

e ------------------|
B ------------------|
G -12--14--11--9----|
D -x---x---x---x----|
A -10--12--9---7----|
E ------------------|

Then the beat picks up, but it's still the same octaves. Then this little diddy is 
played twice while speed picking.
e --------------------------------|
B --20--22--19--20--17--19--20----|
G --------------------------------|
D --------------------------------|
A --------------------------------|
E --------------------------------|

e ----------------------------------------------------------------------------|
B ----8-------8p7-------7--------7p5------------------------------------------|
G --------0----------------0-------------7---------7p5-----4--0-----4---------|
D -----------0-------0--------0-------------5---------------------------5-----|
A -7----------------------------------5---------5-------2--------2------------|
E ----------------------------------------------------------------------------|

Bend the octaves after beating the crap out of them.
e ------------------|
B ------------------|
G -12--11--7--4-----|
D -x---x---x--4-----|
A -10--9---5--2-----|
E ------------------|

Ends on the B.
Tap to rate this tab
# A B C D E F G H I J K L M N O P Q R S T U V W X Y Z