Song name
# A B C D E F G H I J K L M N O P Q R S T U V W X Y Z

The Saddest Landscape - So Lightly Thrown tab

-------------------------------------------------------------------------------
                             SO LIGHTLY THROWN - The Saddest Landscape
-------------------------------------------------------------------------------
Tabbed by: pwdftw
E-mail: brosenberg570@gmail.com

So this tab is just the really cool clean part that appears in the middle and at the end 
after the "cover your heart" part. The whole song is unfortunately difficult to 
transcribe because of how loud and muddled TSL's sound is :(
NOTE: "e" represents 8th note, "d" represents dotted quarter note

Tuning: Standard E
6/4 Time, around 105 BPM

1:39
GUITAR 1
  e e e e e e e e e e e e  e e e e e e e e e e e e
e|------0-----------0-----|------7-----------7-----|
B|----0---0-------0---0---|----7---7-------7---7---|
G|------------------------|--0-------0---0-------7-|
D|--2-------2---2-------2-|5-----------5-----------|x2
A|3-----------3-----------|------------------------|
E|------------------------|------------------------|

1:53
GUITAR 1
  e e e e e e e e e e e e  e e e e e e e e e e e e
e|------0-----------0-----|------7-----------7-----|
B|----0---0-------0---0---|----7---7-------7---7---|
G|------------------------|--0-------0---0-------7-|
D|--2-------2---2-------2-|5-----------5-----------|x9
A|3-----------3-----------|------------------------|
E|------------------------|------------------------|

GUITAR 2
  e  e  e  e  e  e  e  e  e  e  e e   d    d    d   d
e|12-10------------------------------|------------------|
B|------10----10-12-13-12-10---------|10----------------|
G|---------12----------------12-9-12-|-----12---9---7---|
D|-----------------------------------|------------------|x9
A|-----------------------------------|------------------|
E|-----------------------------------|------------------|


************************************

| /   slide up
| \   slide down
| h   hammer-on
| p   pull-off
| ~   vibrato
| +   harmonic
| x   Mute note
| b   Bend
| pb  Pre-bend
| br  Bend release
| pbr Pre-bend release
| brb Bend release bend

************************************
Tap to rate this tab
# A B C D E F G H I J K L M N O P Q R S T U V W X Y Z