Song name
# A B C D E F G H I J K L M N O P Q R S T U V W X Y Z

The Saddle Club - Hello World chords

Highlighted       Show chord diagrams
Hi

I saw a lot of tabs of the song Hello World from The Saddle Club but there is 3 versions 
the song, the lyrics and chords change per saison and say that there's 3 seasons now. 
version I'm gonna post is the version of the 1st and 2nd season...

You can still play this song with a CAPO it's the same chords.

Guitar (Acoustic & Classic)
Standard Tunning
EBGDAE

Chords in this song :

D

1 -------2--------|
2 -------3--------|
3 -------2--------|
4 ----------------|
5 ----------------|
6 ----------------| x (do not play this string when playing the D chord)

A

1 ----------------|
2 -------2--------|
3 -------2--------|
4 -------2--------|
5 ----------------|
6 ----------------| x (do not play this string when playing the A chord)

Em

1 ---------------|
2 ---------------|
3 ---------------|
4 ------2--------|
5 ------2--------|
6 ---------------|

G                             G (on 3rd fret)(this cord gives a nicer sound)

1 -------3-------                    1 -1------------|
2 ---------------                    2 -1--2---------|
3 ---------------             or     3 -1------------|
4 ---------------                    4 -1----3-------|
5 -------2-------                    5 -1-------3----|
6 -------3-------                    6 -1------------|

That's All the chords you will need for this song :

 Hello World

Saddle Club

Chorus :

          D            A             Em         G
Hello world, this is me, life should be,mmm mmm yeah
              D
fun for everyone

Verse:

D                   A           D
Life is easy if you wear a smile,
                            A
Just be yourself don't ever change your style
        Em        G            A
You are you, I am me, we'll be free


Chorus:
           D           A             Em
Hello world, this is me, life should be,
                G
mmmmm mmmmm yeah,
                D
fun for everyone
       A              Em               G
Hello world, come and see, life should be,
                D
fun for everyone

Bridge:

D(hold)       A(hold)
Come on baby, don't be afraid
D(hold)       A(hold)
Come on baby, it's not too late
        Em(hold)
Say you do
          G           A                D
Won't you open up the door and let me in?

Chorus:
           D           A             Em
Hello world, this is me, life should be,
                G
mmmmm mmmmm yeah,
                D
fun for everyone
       A              Em               G
Hello world, come and see, life should be,
               D
fun for everyone

Please TELL ME IF THERE IS ANY MISTAKE OR SPELLING MISTAKES,  if you think the cords are 
right tune you guitar before complaining...and this is my version, so don't complain 
it's not like in the book.

Thanks
P.s : I talk french and Spanish...(Francais et Espagnol)
Tap to rate this tab
 
# A B C D E F G H I J K L M N O P Q R S T U V W X Y Z