Song name
# A B C D E F G H I J K L M N O P Q R S T U V W X Y Z

The Safety Fire - Old Souls tab

Tabbed by: Joshua Garcia (joshuag523@aol.com)

Tabs for the solo: Old Souls by The Saftey Fire
Please rate and let me know if you have any corrections. Thank you.


Tuning: Custom (A A D G B E)


Bridge
Guitar 1 (Left):
E||--(11-11-11-11)-11-11-11-11-11-11-11-11-11-11-11-11-11-11-11-11-11-11-11-11--|
B||-----------------------------------------------------------------------------|
G||-----------------------------------------------------------------------------|
D||-----------------------------------------------------------------------------|
A||-----------------------------------------------------------------------------|
A||-----------------------------------------------------------------------------|
      .  .  .  .   .  .  .  .  .  .  .  .  .  .  .  .  .  .  .  .  .  .  .  .


E||--12-12-12-12-12-12-12-12-12-12-12-12-12-12-12-12-12-12-12-12-12-12-12-12--|
B||---------------------------------------------------------------------------|
G||---------------------------------------------------------------------------|
D||---------------------------------------------------------------------------|
A||---------------------------------------------------------------------------|
A||---------------------------------------------------------------------------|
     .  .  .  .  .  .  .  .  .  .  .  .  .  .  .  .  .  .  .  .  .  .  .  .


E||--5-5-5-5-5-5-7-7-7-7-7-7-7-7-7-7-7-7-7-7--|
B||-------------------------------------------|
G||-------------------------------------------|
D||-------------------------------------------| x10
A||-------------------------------------------|
A||-------------------------------------------|
     . . . . . . . . . . . . . . . . . . . .



Guitar 2 (Right):
E||--------------------------------------------------------------10-10-10-10--|
B||--------------------------------------------------8-8-8-8-8-8--------------|
G||--9-9-9-9-9-9-9-9-9-9-9-9-9-9-9-9-9-9-9-9-9-9-9-9--------------------------|
D||---------------------------------------------------------------------------|
A||---------------------------------------------------------------------------|
A||---------------------------------------------------------------------------|
     . . . . . . . . . . . . . . . . . . . . . . . . . . . . . . .  .  .  .


E||---------------------------------------------------------------|
B||----------------------------------------------8-8-8-8-8-8-8-8--|
G||---------------------------------------------------------------|
D||--7-7-7-7-7-7-7-7-7-7-7-7-7-7-9-9-9-9-9-9-9-9------------------| x10
A||---------------------------------------------------------------|
A||---------------------------------------------------------------|
     . . . . . . . . . . . . . . . . . . . . . . . . . . . . . .



Guitar 1/2:
E||------------------------------------------------------------------|
B||------------------------------------------------------------------|
G||--11~----------9~--------7~---9~---11~----------9~--------7~---9--|
D||--9~-----------7~--------5~---7~---9~-----------7~--------5~---7--|
A||--7~-----------5~--------5~---7~---7~-----------5~--------5~---7--|
A||------------------------------------------------------------------|



Solo
Guitar 1:
E||--------------------------------------------------------------------------------------|
B||--17b20r17~---15b17r15~---12b15r12~---10b12r10~---8b10r8~---/17---/17---/17~b~--------|
G||--------------------------------------------------------------------------------------|
D||--------------------------------------------------------------------------------------|
A||---------------------------------------------------------------------------------\\\--|
A||--------------------------------------------------------------------------------------|


E||----------------------------------------------------------/10--|
B||--17b20r17~---15b17r15~---12b15r12~---10b12r10~---8b10r8-------|
G||---------------------------------------------------------------|
D||---------------------------------------------------------------|
A||---------------------------------------------------------------|
A||---------------------------------------------------------------|


E||--9b10r9b10r9-7-----------------------------|
B||----------------10-8b10r8-------------------|
G||-------------------------9b12r9~--//\\------|
D||----------------------------------------8~--|
A||--------------------------------------------|
A||--------------------------------------------|


E||----------------------------------------------------------------------|
B||---------------------5-0-5-7-5-7-5-*7b8r7b8r7-5-----------------------|
G||-----------------3-0----------------------------7-*6b7r6-2/4~---------|
D||--22002200-2-0-2------------------------------------------------------|
A||----------------------------------------------------------------------|
A||-----------------------------------------------------------------\\\--|
     ........ . . . . . .


E||------------------------------------1212/1515------1515/1717------1717-191919--|
B||-----88-1010----1010/1212------1212-----------1515-----------1717--------------|
G||-------------99-----------1212-------------------------------------------------|
D||--99---------------------------------------------------------------------------|
A||-------------------------------------------------------------------------------|
A||-------------------------------------------------------------------------------|


E||--2121212121212121~--12------------------------15/17~---15-------------------|
B||------------------------13---------------15-17-------------17----------------|
G||--------------------------14\9-7~-----------------------------16\7-*9b~---\--|
D||------------------------------------9/17-------------------------------------|
A||-----------------------------------------------------------------------------|
A||-----------------------------------------------------------------------------|
     (^21's)



Guitar 2:
E||---------------------------------------------------|---------------------------------------|
B||---------------------------------------------------|---------------------------------------|
G||--11-11-11----11-11----11----11-11----11-11-11-11--|--9-9-9----9-9----9----9-9----9-9-9-9--|
D||--9--9--9-----9--9-----9-----9--9-----9--9--9--9---|--7-7-7----7-7----7----7-7----7-7-7-7--| x4
A||--7--7--7-----7--7-----7-----7--7-----7--7--7--7---|--5-5-5----5-5----5----5-5----5-5-5-5--|
A||---------------------------------------------------|---------------------------------------|




Tablature Legend
----------------
 h   hammer-on
 p   pull-off
 b   bend
 pb  pre-bend
 r   release bend
 ~   hold / vibrato
 .   palm mute
 /   slide up
 \   slide down
 *   pinch harmonic
 '   natural harmonic
 x   mute note
 T   tap
Tap to rate this tab
# A B C D E F G H I J K L M N O P Q R S T U V W X Y Z